Cifras e Tablaturas
Jimi Hendrix

Jimi Hendrix

All Along The Watchower

Cifras Cancelar Versão de Impressão
cifras

Jimi Hendrix - All Along The Watchower

fixar na tela  
Exibindo: vídeo-aula ver clipes redimensionar

Tom:

  Solo: 

(Parte 1) 

E|------------------------------------------| 
B|------------------------------------------| 
G|-/9--9-9-9--x-9/11--11-11/13-6~-----------| 
D|------------------------------------------| 
A|------------------------------------------| 
E|------------------------------------------| 

(Parte 2) 

E|--9------9---9---9---9---9---9---9--------| 
B|-12b14-b14-b14-b14-b14-b14-b14-b14--------| 
G|------------------------------------------| 
D|------------------------------------------| 
A|------------------------------------------| 
E|------------------------------------------| 

E|------------------------------------------| 
B|-b14r12-9---------------------------------| 
G|----------11-11b13--11b13--11b13~---------| 
D|------------------------------------------| 
A|------------------------------------------| 
E|------------------------------------------| 

(Parte 3) 

E|-----------------------9-------12-14-14b16| 
B|---------------------9---12b14------------| 
G|-11b13r11p9----11b13----------------------| 
D|------------11----------------------------| 
A|------------------------------------------| 
E|------------------------------------------| 

E|-b16r14-12-14-14b16-14-12----12-----------| 
B|--------------------------14--------------| 
G|------------------------------------------| 
D|------------------------------------------| 
A|------------------------------------------| 
E|------------------------------------------| 

E|------------------------------------------| 
B|-14b17r14b17--b17~--14-b17-14-b17-14------| 
G|-------------------------------------11b13| 
D|------------------------------------------| 
A|------------------------------------------| 
E|------------------------------------------| 

(Parte 4) 

E|-9\5~--5/9~--9/12~--12/14--9~-------------| 
B|------------------------------------------| 
G|-6\2~--2/6~--6/-9~---9/11--6~-------------| 
D|------------------------------------------| 
A|------------------------------------------| 
E|------------------------------------------| 

E|-/9~--9/12--12/14--\14--12--14\12--9~-----| 
B|------------------------------------------| 
G|-/6~--6/-9---9/11--\11---9--11\-9--6~-----| 
D|------------------------------------------| 
A|------------------------------------------| 
E|------------------------------------------| 

(Parte 5) 

E|12--12-12-12/14--14-14-14/16--16-16-16/19| 
B|------------------------------------------| 
G|-9---9--9--9/11--11-11-11/13--13-13-13/16| 
D|------------------------------------------| 
A|------------------------------------------| 
E|------------------------------------------| 

E|-19-19-19\--------------------------------| 
B|------------------------------------------| 
G|-16-16-16\--------------------------------| 
D|------------------------------------------| 
A|------------------------------------------| 
E|------------------------------------------| 

(Parte 6) 

E|---------9----9--------------9------------| 
B|-------9---12---12p9-------9---12p9-------| 
G|-11b13---------------11b13----------11b13-| 
D|------------------------------------------| 
A|------------------------------------------| 
E|------------------------------------------| 

E|------------------------------------------| 
B|------------------------------------------| 
G|-11-9----9-11-11b13-----------------------| 
D|------11----------------------------------| 
A|------------------------------------------| 
E|------------------------------------------| 

(Parte 7) 

E|-------------9-11-9---------9-11-9--------| 
B|-12b14--12-9--------9-12b14--------9------| 
G|------------------------------------------| 
D|------------------------------------------| 
A|------------------------------------------| 
E|------------------------------------------| 

E|-------9-11-9-----------------------9-----| 
B|-12b14--------9-12b14--12-9-------9---12-9| 
G|----------------------------11b13---------| 
D|------------------------------------------| 
A|------------------------------------------| 
E|------------------------------------------| 

E|------------------------------11----11----| 
B|----------------12b14-b14~----14b16-14b16~| 
G|-11b13-11-9~------------------------------| 
D|------------------------------------------| 
A|------------------------------------------| 
E|------------------------------------------| 

(Parte 8) 

E|-11p9--9-9-9-9-9-9-x-x-7--9p7--7-7-x-x----| 
B|--9----9-9-9-9-9-9-x-x-7--7----7-7-x-x----| 
G|--9----9-9-9-9-9-9-x-x-8--8----8-8-x-x----| 
D|------------------------------------------| 
A|------------------------------------------| 
E|------------------------------------------| 

E|-5--7p5--5-5------------------------------| 
B|-5--5----5-5--8/10--10-10-10/12\-x-x-x-x--| 
G|-6--6----6-6--9/11--11-11-11/13\-x-x-x-x--| 
D|------------------------------------------| 
A|------------------------------------------| 
E|------------------------------------------| 

(Parte 9) 

E|-9--11p9--9-9-x-x-7--9p7--7-7-x-x---------| 
B|-9---9----9-9-x-x-7--7----7-7-x-x---------| 
G|-9---9----9-9-x-x-8--8----8-8-x-x---------| 
D|------------------------------------------| 
A|------------------------------------------| 
E|------------------------------------------| 

E|-5--7p5--5-5-x-x-x-x-x-x-x-x-x-x----------| 
B|-5--5----5-5-x-x-x-x-x-x-x-x-x-x----------| 
G|-6--6----6-6-x-x-x-x-x-x-x-x-x-x----------| 
D|------------------------------------------| 
A|------------------------------------------| 
E|------------------------------------------| 

(Parte 10) 

E|-9--11p9--9-9-x-x-7--9p7--7-7-x-x---------| 
B|-9---9----9-9-x-x-7--7----7-7-x-x---------| 
G|-9---9----9-9-x-x-8--8----8-8-x-x---------| 
D|------------------------------------------| 
A|------------------------------------------| 
E|------------------------------------------| 

E|-5--7p5--5-5------------------------------| 
B|-5--5----5-5--8/10--10-10-10/12\-x-x------| 
G|-6--6----6-6--9/11--11-11-11/13\-x-x------| 
D|------------------------------------------| 
A|------------------------------------------| 
E|------------------------------------------| 

(Parte 11) 

E|-9----...--11----...--12----...--14----...| 
B|12b14~...--14b16~...--15b17~...--17b19~...| 
G|------------------------------------------| 
D|------------------------------------------| 
A|------------------------------------------| 
E|------------------------------------------| 

E|-16----...--------------------------------| 
B|-19b21~...--------------------------------| 
G|------------------------------------------| 
D|------------------------------------------| 
A|------------------------------------------| 
E|------------------------------------------| 
E|------------------------------------------| 
  

top 5 | jimi hendrix
top rock clássico
Outras músicas do artista letras do(a) Jimi Hendrix
Top cifras »Top artistas »
Petaxxon Comunicação Online
Cifras.com.br - Melhor e mais completo site de cifras e tablaturas do Brasil
Mais de 1 milhão de acordes de músicas cadastradas desde 2003
As informações contidas no nosso site são colaborações de seus usuários e podem conter erros, sendo assim, não nos responsabilizamos sobre nenhuma destas.
close
menos
mais
close
Cor dos acordes:

Cor da letra:

 

save
close
close
 
redimensionar