Cifras e Tablaturas
Jimi Hendrix

Jimi Hendrix

Purple Haze Tablatura Verificada

Ano: 1967
Album : Experience Hendrix: The Best of Jimi Hendrix
Compositor : (Jimi Hendrix)

Cifras Cancelar Versão de Impressão
cifras

Jimi Hendrix - Purple Haze

fixar na tela  
Exibindo: vídeo-aula ver clipes redimensionar

Tom:

  
Intro: E5º 

e|-----------------| 
B|-----------------| 
G|---3---3---3---3-| 
D|---2---2---2---2-| 
A|-1---1---1---1---| 
E|-0---0---0---0---| 

Riff:  

e|------------------------------------------------------------------| 
B|------8--------------------8--------------------------------------| 
G|----7--------------------7----------------------------------------| 
D|-/9-----7-------------/9-----7----------------5-7-7b9-5-----------| 
A|----------/10------/7-----------/10-----/7-/7-----------10--------| 
E|--------------10-0-----------------10-0--------------------10-0-3-| 

e|---------------------------------| 
B|---------------------------------| 
G|------------------------7-7-7h9--| 
D|------5-7/9-7-7\5---7/9----------| 
A|---/7-------------7--------------| 
E|---------------------------------| 

Chords: E7(9+) G A5  

e|------------------------------| 
B|--------------8b10-------8b10-| 
G|-11-9-7-----7---------7-------| 
D|---------/9--------/9---------| 
A|-9--7-5-----------------------| 
E|------------------------------| 

Pre-Solo: 

e|---------------------------------15b17------15b17-------------------| 
B|-------12b14-------12b14----------------------------15------15--15--| 
G|-----9----------9------------12---------12-------14b----14b-----14b-| 
D|-/11--------/11----------/14--------/14-----------------------------| 
A|--------------------------------------------------------------------| 
E|--------------------------------------------------------------------| 


Solo: 

e|-12----12----12------------------------14-------| 
B|-12h14-12h14-12h14p12----12---------------------| 
G|----------------------14----14p13-14b16---(14b)-| 
D|------------------------------------------------| 
A|------------------------------------------------| 
E|------------------------------------------------| 

e|----------------------------------------------------------| 
B|----------------------------------------------------------| 
G|-----12h14-12----12---12h14p12\11-------------------------| 
D|-/14----------14-------------------14-12---12-14-12-11-12-| 
A|----------------------------------------------------------| 
E|----------------------------------------------------------| 

e|---------------------------------------------------------| 
B|---------------------------------------------------------| 
G|---------------------------------------------------------| 
D|-----14h16--14h16p14\12-14\16--12-12--16p12-16p12-16p12--| 
A|-/16-----------------------------------------------------| 
E|---------------------------------------------------------| 

e|-x---------------14--12h14p12----12--------------------------------| 
B|-x-------------x--------------15----14b16r14-14p12-14p12----15-15--| 
G|-x-------11h12-x----------------------------------------14b----14b-| 
D|---12h14-------x---------------------------------------------------| 
A|---------------x---------------------------------------------------| 
E|-------------------------------------------------------------------| 

Riff: 

e|---------------------------------------------------------| 
B|------8b------------------8b-----------------------------| 
G|----7-------------------7--------------------------------| 
D|-/9-----7------------/9-----7---------------5-7-7/9-7/9--| 
A|---------/10------/7----------/10-----/7-/7--------------| 
E|-------------10-0----------------10-0--------------------| 

e|---------------------------------------| 
B|-----------------------8---------------| 
G|---------------------7-----------------| 
D|----5-7/9-7h9p7---/9-----7-------------| 
A|-/7-----------------------/10-----5/7--| 
E|---------------3b-------------10-0-----| 

End: 

e|--------------------------------------------------------------------| 
B|-------8--------8---14-15-14-12-------15b17-(15b)-(15b)-(15b)-(15b)-| 
G|-----9--------9-----------------14-12-------------------------------| 
D|-/11------/11-------------------------------------------------------| 
A|--------------------------------------------------------------------| 
E|--------------------------------------------------------------------| 



  

cifra enviadacorrigido por:Acelot
enviado poranônimo
top 5 | jimi hendrix
top rock clássico
Outras músicas do artista letras do(a) Jimi Hendrix
Top cifras »Top artistas »
Petaxxon Comunicação Online
Cifras.com.br - Melhor e mais completo site de cifras e tablaturas do Brasil
Mais de 1 milhão de acordes de músicas cadastradas desde 2003
As informações contidas no nosso site são colaborações de seus usuários e podem conter erros, sendo assim, não nos responsabilizamos sobre nenhuma destas.
close
menos
mais
close
Cor dos acordes:

Cor da letra:

 

save
close
close
 
redimensionar