Cifras e Tablaturas
Joe Pug

Joe Pug

Disguised As Someone Else (acoustic)

Cifras Cancelar Versão de Impressão
cifras

Joe Pug - Disguised As Someone Else (acoustic)

fixar na tela  
Exibindo: vídeo-aula ver clipes redimensionar
  
Intro 

   Em                              G 
e|-3---------------3-----2---0-------------------------------------| 
B|-0---------0-----0---------------3---------3-----3---------------| 
G|-0-----0-------0-0---------------0-----0-------0-2h4----2----4---| 
D|-----2-------2-------2---2---2-------0-------0-------0-----0-----| 
A|-----------------------------------------------------------------| 
D|-2-------2-------2---------------5-------5-------5-------5-------| 

   D                               A7 
e|-----------------------------------------------------------------| 
B|-----------3-----3---------------2---------2-----2---------2-----| 
G|-0h2---2-------2-2---------2-----0-----0-------0-------0-------2-| 
D|-0---0-------0---4-----2---0-----2---2-------2-------2-------2---| 
A|---------------------------------0-------0-------0-------0-------| 
D|-0-------0-------0---0---0---0-----------------------------------| 

   Em                              G 
e|-----------------3-----2---0-------------------------------------| 
B|-0---------0-----0---------------3---------3-----3---------------| 
G|-0-----0-------0-0---------------0-----0-------0-2h4----2----4---| 
D|-2---2-------2-------2---2---2-------0-------0-------0-----0-----| 
A|-----------------------------------------------------------------| 
D|-2-------2-------2---------------5-------5-------5-------5-------| 

   D                               A7              A7sus4 
e|-----------------------------------------------------------------| 
B|-----------3-----3---------------2---------2-----3---------3-----| 
G|-0h2---2-------2-2---------2-----0-----0-------0-0-----0-------2-| 
D|-0---0-------0---4-----2---0-----2---2-------2---2---2-------2---| 
A|---------------------------------0-------0-------0-------0-------| 
D|-0-------0-------0---0---0---0-----------------------------------| 

   A7                              D 
e|-0---------------0-----------------------------------------------| 
B|-2---------2-----2-----3---2-----3---------3---------3-----3-----| 
G|-0-----0-------0-0-----0---0-----2-----2-------2-2h4---2h4---2h4-| 
D|-----2-------2---------2---2-----0---0-------0-------------------| 
A|-0-------0-------0---0---0---2-----------------------------------| 
D|---------------------------------0-------0-------0---------------| 

   D 
e|---------------------------------| 
B|-3-------------------------3-----| 
G|-2-----2---------2-------------2-| 
D|-----------4p2---0-----0-----0---| 
A|---------------------------------| 
D|-0---0---0-------0---0---0-------| 


Verse 

   D 
e|-----------------------------------------------------------------| 
B|-3---------3-----3---------3-----3---------3-----3---------3-----| 
G|-2-----2-------2-2-----2-------2-2-----2-------2-2-----2-------2-| 
D|-----0-------0-------0-------0-------0-------0-------0-------0---| 
A|-----------------------------------------------------------------| 
D|-0-------0-------0-------0-------0-------0-------0-------0-------| 
I  wish that I could come to you disguised as someone else 
I  wish that I could work for you with someone else's hands 

                   G 
e|-2-----0---------3-------------------------------3-----2---0-----| 
B|-3---------3-----3---------3-----3---------3-----3-----3---3-----| 
G|-----------------------0-------0-------0-------0-----------------| 
D|-----0---------------0-------0-------0-------0-------------------| 
A|-----------------------------------------------------------------| 
D|-0-------0---0---5-------5-------5-------5-------5---5---5---5---| 
              Oh I wish that I could come to you disguised as someone 
              Oh I  wish that I could work for you with someone else's 
   D 
e|-----------------------------------------------------------------| 
B|-3---------3---------3-----3-----3-------------------------3-----| 
G|-2-----2-------2-2h4---2h4---2h4-2-----2---------2-------------2-| 
D|-----0-------0-----------------------------4p2---0-----0-----0---| 
A|-----------------------------------------------------------------| 
D|-0-------0-------0---------------0---0---0-------0---0---0-------| 
   else. 
   hands. 

   G 
e|-----------------------------------------------------------------| 
B|-0---------0-----2---------2-----3---------3-----5---------5-----| 
G|-0-----0-------0-0-----0-------0-0-----0-------0-0-----0-------0-| 
D|-----0-------0-------0-------0-------0-------0-------0-------0---| 
A|-----------------------------------------------------------------| 
D|-5-------5-------5-------5-------5-------5-------5-------5-------| 
   Help you lift your luggage from the platform to the train 
   Be behind the counter of a bookstore that you're in 

   G 
e|-----------------------------------------------------------------| 
B|-0---------0-----2---------2-----3---------3-----5---------5-----| 
G|-0-----0-------0-0-----0-------0-0-----0-------0-0-----0-------0-| 
D|-----0-------0-------0-------0-------0-------0-------0-------0---| 
A|-----------------------------------------------------------------| 
D|-5-------5-------5-------5-------5-------5-------5-------5-------| 
   Ask you for  directions        I don't need explained 
   Charge you seven dollars for a crosword and a pen 

   D                               A7 
e|-2---------------------------------------------------------------| 
B|-3---------3-----3---------3-----2---------2-----3---------3-----| 
G|-------2-------2-2-----2-------2-0-----2-------2-0-----2-------2-| 
D|-----0-------0-------0-------0-------0-------0-------0-------0---| 
A|---------------------------------0-------0-------0-------0-------| 
D|-0-------0-------0-------0---------------------------------------| 
   You would never think to ask my name 
   You would leave and not look back again 

   A7                              Em 
e|-----------------------------------------------------------------| 
B|-2---------2-----2---------2-----0---------0-----0---------0-----| 
G|-0-----2-------2-------2-------2-0-----0-------0-------0-------0-| 
D|-----0-------0-------0-------0---2---2-------2-------2-------2---| 
A|-0-------0-------0-------0---------------------------------------| 
D|---------------------------------2-------2-------2-------2-------| 
                                   Let's not put it lightly I 
                                   Even hardened criminals they 
                                   I don't have the stomach to 

   A7 
e|-----------------------------------------------------------------| 
B|-2---------2-----3---------3-----2---------2-----2---------2-----| 
G|-0-----2-------2-------2-------2-0-----2-------2-------2-------2-| 
D|-----0-------0-------0-------0-------0-------0-------0-------0---| 
A|-0-------0-------0-------0-------0-------0-------0-------0-------| 
D|-----------------------------------------------------------------| 
   put us both through hell 
   get a second chance 
   face you as myself                                               ________________ 
                                                                   | End verse 1 
   Em              G                               D           
     | 
e|-------------------------------------------------2---------------|-2---0-----------| 
B|-0---------0-----3---------3-----3---------3-----3---------3-----|---------3-------| 
G|-0-----0-------0-------0-------0-------0-------0-------2-------2-|-------------2---| 
D|-2---2-------2-------0-------0-------0-------0-------0-------0---|-----------------| 
A|-----------------------------------------------------------------|-----------------| 
D|-2-------2-------5-------5-------5-------5-------0-------0-------|-----------------| 
 I wish that I could come to you disguised as someone else 
 I wish that I could work for you with someone else's hands 
 I wish that I could come to you disguised as someone else 
___________________________________________________________________ 
   A7              A7sus4 
e|---------------------------------0---------------0---------------| 
B|-2---------2-----3---------3---------------2-----------3---2-----| 
G|-------0-------0-------0-------2-------0-------0-----------------| 
D|-----2-------2-------2-------2-------2-------2-------------------| 
A|-0-------0-------0-------0-------0-------0-------0---0---0---2---| 
D|-----------------------------------------------------------------| 
_____________________________________________________________________ 
   D                                                               :|| 
e|-----------------------------------------------------------------:|| 
B|-3---------3---------3-----3-----3-------------------------3-----:|| 
G|-2-----2-------2-2h4---2h4---2h4-2-----2---------2-------------2-:|| 
D|-0---0-------0-----------------------------4p2---0-----0-----0---:|| 
A|-----------------------------------------------------------------:|| 
D|-0-------0-------0---------------0---0---0-------0---0---0-------:|| 
  ________________________________________________ 
 | End verse 2 
 | D               A               F#7 
e|-2-----------------------------------------------| 
B|-3---------3-----2---------2-----2---------2-----| 
G|-------2-------2-------0-------0-------3-------3-| 
D|-----0-------0-------2-------2-------2-------2---| 
A|-----------------0-------0-------1-------1-------| 
D|-0-------0---------------------------------------| 


Bridge 

    Bm                              D 
e|:-----------------2-------------------------------2---------------:| 
B|:-3---------3---------------3-----3---------3---------------3-----:| 
G|:-4-----4-------4-------4-------4-2-----2-------2-------2-------2-:| 
D|:-----4-------4-------4-------4-------0-------0-------0-------0---:| 
A|:-2-------2-------2-------2---------------------------------------:| 
D|:---------------------------------0-------0-------0-------0-------:| 
  I wish that I could come to you could run to you could sing to you 
  A stranger in your living room who doesn't mean a thing to you 

   Em                              Bm 
e|-------------------------------------------------2---------------| 
B|-0---------0-----0---------0-----3---------3---------------3-----| 
G|-0-----0-------0-------0-------0-4-----4-------4-------4-------4-| 
D|-2---2-------2-------2-------2-------4-------4-------4-------4---| 
A|---------------------------------2-------2-------2-------2-------| 
D|-2-------2-------2-------2---------------------------------------| 
   Singing that    old forgotten   song 

   Em              C               A7 
e|-----------------------------------------------------------------| 
B|-0---------0-----1---------1-----2---------2-----3---------3-----| 
G|-0-----0-------0-0-----0-------0-0-----0-------0-------0-------0-| 
D|-2---2-------2-------2-------2-------2-------2-------2-------2---| 
A|-----------------3-------3-------0-------0-------0-------0-------| 
D|-2-------2-------------------------------------------------------| 
   On         and  on         and  on 

   A7 
e|---------------------------------| 
B|-2---------2-----2---------2-----| 
G|-------2-------2-------2-------2-| 
D|-----0-------0-------0-------0---| 
A|-0-------0-------0-------0-------| 
D|---------------------------------| 


Intro repeato 

Pick up the VERSE at the Em chord, and end with: 

  _________________________________________________________________ 
 | D 
e|-----------------------------------------------------------------| 
B|-----3-----3-----3-------------------------3-----3---------3-----| 
G|-2h4---2h4---2h4-2-----2---------2-------------2-2-----2-------2-| 
D|---------------------------4p2---0-----0-----0-------0-------0---| 
A|-----------------------------------------------------------------| 
D|-0---------------0---0---0-------0---0---0-------0-------0-------| 
                                              Oh I wish that I could 
___________________________________________________________________ 

e|-------------------------2---------------0--------2--------------| 
B|-3---------3-----3---------------2----------------3--------------| 
G|-2-----2-------2-2---------------0----------------2--------------| 
D|-----0-------0-------------------2----------------0--------------| 
A|---------------------------------0----------------0--------------| 
D|-0-------0-------0--------------------------------0--------------| 
   come to you disguised   as      some    one      else 


********************************************************** 
| h    hammer-on 
| p    pull-off 
********************************************************** 
  

cifra enviadasem correções
enviado porenviada por:LINEKERS
top 5 | joe pug
top diversos
Outras músicas do artista letras do(a) Joe Pug
Top cifras »Top artistas »
Petaxxon Comunicação Online
Cifras.com.br - Melhor e mais completo site de cifras e tablaturas do Brasil
Mais de 1 milhão de acordes de músicas cadastradas desde 2003
As informações contidas no nosso site são colaborações de seus usuários e podem conter erros, sendo assim, não nos responsabilizamos sobre nenhuma destas.
close
menos
mais
close
Cor dos acordes:

Cor da letra:

 

save
close
close
 
redimensionar