Cifras e Tablaturas
Joe Satriani

Joe Satriani

Midnight Tablatura Verificada

Ano: 1987
Compositor : (Joe Satriani)

Cifras Cancelar Versão de Impressão
cifras

Joe Satriani - Midnight

fixar na tela  
Exibindo: vídeo-aula ver clipes redimensionar

Tom:

  

INTRO: 

 Bm			                    
e|-------------------------------------------------------------| 
B|-----12--------12--------12--------12-----------14-----------| 
G|-------------------------------------------------------------| 
D|--------12--------12--------12--------12-----11---14----11---|  
A|---9---------9---------9---------9--------10---------10------| 
E|-7---------7---------7---------7-----------------------------| 
 L1L3R2R1                                 L1 L2 R2R1 

                               Bm 
e|----------------------------------------------| 
B|----------14-------12--------12--------12-----| 
G|----------------------------------------------| 
D|-14----11---14--------12--------12--------12--|  
A|----10-----------9---------9---------9--------| 
E|---------------7---------7---------7----------| 

                                  F#m7/G  
e|-------------14----------14----------------------------------| 
B|-14----------------------------------------------------------| 
G|----------------14----------14-------------------------------| 
D|----14----14----------11-------------------------------------| 
A|-------10----------10----------------------------------------| 
E|-------------------------------------------------------------| 

 Bm                                       Em 
e|----------------------------------------------12--------12---| 
B|-----12--------12---------12--------12-----------------------| 
G|-------------------------------------------------12--------12|  
D|--------12--------12---------12--------12---9---------9------| 
A|---9---------9----------9---------9-------7---------7--------| 
E|-7---------7----------7---------7----------------------------| 

                     F#7sus4(#5)         
e|-----12--------12--------------------------------------------| 
B|-------------------------12--------12--------12--------12----| 
G|--------12--------12---9---------9---------9---------9-------| 
D|---9---------9--------------12--------12--------12--------12-| 
A|-7---------7---------9---------9---------9---------9---------| 
E|-------------------------------------------------------------| 

 F#7	                         
e|-------------------------------------------------------------| 
B|-----11--------11--------11----------------------------------| 
G|---9---------9---------9-------------------------------------|  
D|--------11--------11--------11-------------------------------| 
A|-9---------9---------9---------9-----------------------------| 
E|-------------------------------------------------------------| 
           
 Bm			                    
e|-----------------------------------------------------------------| 
B|-----12--------12--------12--------12-----------14---------14----| 
G|-----------------------------------------------------------------| 
D|--------12--------12--------12--------12-----11---14----11----14-|  
A|---9---------9---------9---------9--------10---------10----------| 
E|-7---------7---------7---------7---------------------------------| 

                               Bm 
e|-----------------------------------------------------------------| 
B|-------14----------14-------12--------12--------12---------------| 
G|-----------------------------------------------------------------| 
D|----11----14----11---14--------12--------12--------12------------| 
A|-10----------10-----------9---------9---------9------------------| 
E|------------------------7---------7---------7--------------------| 

            F#m7/G                   
e|------------------14----------14----------12----------12-----| 
B|-----12------------------------------------------------------| 
G|---------------------14----------14----------12----------12--| 
D|--------12-----11----------11----------11----------11--------| 
A|---9--------10----------10----------10----------10-----------| 
E|-7-----------------------------------------------------------| 

 Bm                                       Em 
e|----------------------------------------------12--------12---| 
B|-----12--------12---------12--------12-----------------------| 
G|-------------------------------------------------12--------12| 
D|--------12--------12---------12--------12---9---------9------|  
A|---9---------9----------9---------9-------7---------7--------| 
E|-7---------7----------7---------7----------------------------| 

                     F#7sus4(#5)         
e|-----12--------12--------------------------------------------| 
B|-------------------------12--------12--------12--------12----| 
G|--------12--------12---9---------9---------9---------9-------| 
D|---9---------9--------------12--------12--------12--------12-|  
A|-7---------7---------9---------9---------9---------9---------| 
E|-------------------------------------------------------------| 

 F#7	                         
e|-------------------------------------------------------------| 
B|-----11--------11--------11----------------------------------| 
G|---9---------9---------9-------------------------------------| 
D|--------11--------11--------11-------------------------------|  
A|-9---------9---------9---------9-----------------------------| 
E|-------------------------------------------------------------|   
  

THEME: 

 Em/B		                B 
e|---12---12---12---12---12---12----11---11---11---11---11---11| 
B|-------------------------------------------------------------| 
G|---12---12---12---12---12---12----11---11---11---11---11---11| 
D|-9----9----9----9----9----9-----9----9----9----9----9----9---|  
A|-------------------------------------------------------------| 
E|-7----7----7----7----7----7-----7----7----7----7----7----7---| 
 L3 R2 
 L1 R1 

 Em/B		                B 
e|---12---12---12---12---12---12----11---11---11---11---11---11| 
B|-------------------------------------------------------------| 
G|---12---12---12---12---12---12----11---11---11---11---11---11| 
D|-9----9----9----9----9----9-----9----9----9----9----9----9---| 
A|-------------------------------------------------------------| 
E|-7----7----7----7----7----7-----7----7----7----7----7----7---| 

 Gm/D				      D 
e|----15----15----15----15----15----15-----14----14----14----14| 
B|-------------------------------------------------------------| 
G|----15----15----15----15----15----15-----14----14----14----14| 
D|-12----12----12----12----12----12-----12----12----12----12---|  
A|-------------------------------------------------------------| 
E|-10----10----10----10----10----10-----10----10----10----10---| 

             Gm/D                                 D 
e|----14----14-----15----15----15----15----15----15----14----14| 
B|-------------------------------------------------------------| 
G|----14----14-----15----15----15----15----15----15----14----14| 
D|-12----12-----12----12----12----12----12----12----12----12---|  
A|-------------------------------------------------------------| 
E|-10----10-----10----10----10----10----10----10----10----10---| 

                         Am/E 
e|----14----14----14----14----17----17----17----17----17----17-| 
B|-------------------------------------------------------------| 
G|----14----14----14----14----17----17----17----17----17----17-| 
D|-12----12----12----12----14----14----14----14----14----14----|  
A|-------------------------------------------------------------| 
E|-10----10----10----10----12----12----12----12----12----12----| 

 Em                                  Am/E 
e|----15----15----15----15----15----15----17----17----17----17-| 
B|-------------------------------------------------------------| 
G|----16----16----16----16----16----16----17----17----17----17-| 
D|-14----14----14----14----14----14----14----14----14----14----|  
A|-------------------------------------------------------------| 
E|-12----12----12----12----12----12----12----12----12----12----| 

             Em                                  Bm/F#                                            
e|----17----17----15----15----15----15----15----15----19----19-| 
B|-------------------------------------------------------------| 
G|----17----17----16----16----16----16----16----16----19----19-| 
D|-14----14----14----14----14----14----14----14----16----16----|  
A|-------------------------------------------------------------| 
E|-12----12----12----12----12----12----12----12----14----14----| 

                                       F#7 
e|----19----19-----19----19-----19----19-----19----21-----21-----21--| 
B|-------------------------------------------------------------------| 
G|----19----19-----19----19-----19----19-----19----21-----21-----21--| 
D|-16----16-----16----16-----16----16----16-----16-----16----16------|  
A|-------------------------------------------------------------------| 
E|-14----14-----14----14-----14----14----14-----14-----14----14------| 
    
 F# 
e|-----18----18-----18-----18----18-----18-----18----18-----18----18----18---| 
B|---------------------------------------------------------------------------| 
G|-----18----18-----18-----18----18-----18-----18----18-----18----18----18---| 
D|-16-----16----16-----16-----16-----16----16-----16----16-----16----16------|  
A|---------------------------------------------------------------------------| 
E|-14-----14----14-----14-----14-----14----14-----14----14-----14-----14-----| 

 Gmaj7				         Gmaj7(#11) 
e|-------------------------------------------------------------| 
B|-----12----12-----12-----12----12-----12-----14----14-----14-| 
G|-11-----11-----11----11-----11-----11----11-----11-----11----| 
D|-----12----12-----12-----12----12-----12-----14----14-----14-|  
A|-10-----10-----10----10-----10-----10----10-----10-----10----| 
E|-------------------------------------------------------------| 

                     Gmaj7 
e|-------------------------------------------------------------| 
B|--14----14-----14-----15----15-----15-----15----15-----15----| 
G|-----11-----11----11-----11-----11----11-----11-----11-------| 
D|--14----14-----14-----16----16-----16-----16----16-----16----|  
A|-----10-----10----10-----10-----10----10-----10-----10-------| 
E|-------------------------------------------------------------| 

 G6                                     F#7 
e|-------------------------------------------------------------| 
B|--17----17-----17-----17----17-----17----11---11----11-------| 
G|-----11-----11----11-----11-----11----9-----9-----9-----9----| 
D|--17----17-----17-----17----17-----17----11---11----11-------| 
A|-----10-----10----10-----10-----10----9-----9-----9-----9----|   
E|-------------------------------------------------------------| 

                  Cmaj7                             F#7 
e|--------------------------------------------------------------| 
B|-11-----11-----11----12---12----12----12---12----12----11---11| 
G|-----9------9-----9-----9-----9----9-----9-----9----9-----9---| 
D|-11-----11-----11----12---12----12----12---12----12----11---11| 
A|-----9------9---------------------------------------9-----9---|  
E|------------------8-----8-----8----8-----8-----8--------------| 

                       Em7 
e|--------------------------------------------------------------| 
B|----11---11----11---11---12----12----12----12---12----12------| 
G|-9-----9-----9----9----7-----7-----7----7-----7-----7---------| 
D|----11---11----11---11---12----12----12----12---12----12------| 
A|-9-----9-----9----9----7-----7-----7----7-----7-----7---------|  
E|--------------------------------------------------------------| 

 F#7			       Gmaj7 
e|--------------------------------------------------------------| 
B|---11---11---11---11---11---11----12----12----12----12----12--| 
G|-9----9----9----9----9----9----11----11----11----11----11-----| 
D|---11---11---11---11---11---11----12----12----12----12----12--|  
A|-9----9----9----9----9----9----10----10----10----10----10-----| 
E|--------------------------------------------------------------| 

       F#7sus4(#5)      
e|-----------------------------------------------------------------------------| 
B|----12----12---12----12----12---12----12----11---11----11---11---11---11--11-| 
G|-11----9-----9-----9----9-----9-----9----9-----9-----9----9----9----9---9----| 
D|----12----12---12----12----12---12----12----11---11----11---11---11---11--11-|  
A|-10----9-----9-----9----9-----9-----9----9-----9-----9----9----9----9---9----| 
E|-----------------------------------------------------------------------------| 

e|-------------| 
B|--11---11----| 
G|-----9----9--| 
D|--11---11----| 
A|-----9----9--| 
E|-------------| 



OUTRO: 

 Bm                 Em         F#7		  Em7     
e|---------------------------12-----------------------------------------------| 
B|-----12----------14------------------11------11--------12-----------14------| 
G|------------------------------12---9-------9---------7----------------------| 
D|--------12----11----14---9----------------------11--------12-----11----14---| 
A|---9-------10----------7---------9-------9---------7----------10------------| 
E|-7--------------------------------------------------------------------------| 
 L1L3 R2R1             L1 L2 R2R1 
                                                               4x 
 Eº/B	 

e|-----------| 
B|-----12----| 
G|--------12-| 
D|-----------|  
A|---9-------| 
E|-7---------| 

e|-----------| 
B|-----12----| 
G|-----12----| 
D|-----------|   
A|---9-------| 
E|-7---------| 

e|-----12--------12--------12--------12--------12--------12---------| 
B|------------------------------------------------------------------| 
G|--------12--------12--------12--------12--------12--------12------| 
D|---8---------8---------8---------8---------8---------8------------|   
A|------------------------------------------------------------------| 
E|-7---------7---------7---------7---------7---------7--------------| 
                     B 
e|-----12--------12--------11--------11--------11--------11-----| 
B|--------------------------------------------------------------| 
G|--------12--------12--------11--------11--------11--------11--| 
D|---8---------8---------9---------9---------9---------9--------|  
A|--------------------------------------------------------------| 
E|-7---------7---------7---------7---------7---------7----------| 

                                         Eº/B 
e|-----11--------11--------11--------11---------12--------12----| 
B|--------------------------------------------------------------| 
G|--------11--------11--------11--------11---------12--------12-| 
D|---9---------9---------9---------9----------8---------8-------|   
A|--------------------------------------------------------------| 
E|-7---------7---------7---------7----------7---------7---------| 


e|-----12--------12---------15--------15---------12--------12---| 
B|--------------------------------------------------------------| 
G|--------12--------12---------12--------12---------12--------12| 
D|---8---------8----------8---------8----------8---------8------|   
A|--------------------------------------------------------------| 
E|-7---------7----------7---------7----------7---------7--------| 

 B 
e|-----11--------11--------11--------11--------11--------11------| 
B|---------------------------------------------------------------| 
G|--------11--------11--------11--------11--------11--------11---| 
D|---9---------9---------9---------9---------9---------9---------|   
A|---------------------------------------------------------------| 
E|-7---------7---------7---------7---------7---------7---------7-| 

  

cifra enviadacorrigido por:Acelot
enviado poranônimo
top 5 | joe satriani
top rock'n roll
Outras músicas do artista letras do(a) Joe Satriani
Top cifras »Top artistas »
Petaxxon Comunicação Online
Cifras.com.br - Melhor e mais completo site de cifras e tablaturas do Brasil
Mais de 1 milhão de acordes de músicas cadastradas desde 2003
As informações contidas no nosso site são colaborações de seus usuários e podem conter erros, sendo assim, não nos responsabilizamos sobre nenhuma destas.
close
menos
mais
close
Cor dos acordes:

Cor da letra:

 

save
close
close
 
redimensionar