Cifras e Tablaturas
Johann Sebastian Bach

Johann Sebastian Bach

Prelude Bwv 997 In C Minor

Cifras Cancelar Versão de Impressão
cifras

Johann Sebastian Bach - Prelude Bwv 997 In C Minor

fixar na tela  
Exibindo: vídeo-aula ver clipes redimensionar

Tom:

  
1  |       |       |       |         |       |       |       | 
e|-----------------4---5-------5---|-----------------4---5-------5---| 
B|-------------5-------------------|-------------5-------------------| 
G|-----2-4-5---------------0-------|-----2-4-5-----------------------| 
D|---------------------------------|-3-----------------------2-------| 
A|-0-------------------------------|---------------------------------| 
E|---------------------------------|---------------------------------| 
     
3  |       |       |       |         |       |       |       | 
e|-----------------4---5-------5---|---3-1-0-------------------------| 
B|-------------5-------------------|---------3-1-0-------0-------3---| 
G|-----2-4-5-----------------------|---------------2-1-2-------------| 
D|-0-------------------------------|-0---------------------3-2-------| 
A|-------------------------3-------|---------------------------------| 
E|---------------------------------|-----------------0---------------|      

5  |       |       |       |         |       |       |       | 
e|-------------------0-----1-0-----|---1---------------1-0---3-1-0---| 
B|-1-0-----------0-1---3-1-----3-1-|-3-----------0-1-3-----3-------3-| 
G|-----2-----1-2-------------------|-----0-----2-----0---------------| 
D|-----------------3---------------|---------0-----------------------| 
A|-0-------3---------------0-------|-2-----------------------2-------| 
E|---------------------------------|---------------------------------| 
   
7  |       |       |       |         |       |       |       | 
e|-0---0-3-------3-------3-------1-|-0---0---0---0---------1---0-----| 
B|---3-----0---0---1-0-1---3-1-3---|---3---1---0-------------------3-| 
G|-----------2-------------0-------|---------------2-1---1---1---1---| 
D|---------3-------2---------------|-------------------4-------------| 
A|-3-------------------------------|-3-------3-------2---------------| 
E|---------------------------------|-------------------------0-------|    

9  |       |       |       |         |       |       |       | 
e|-------0-5---8-------------0-2-3-|-5-------------0-2---------------| 
B|-1-0-1-------------5-4-----------|-----0-----2-4-------------1-0---| 
G|---------0-----------------------|---5---------------1-2---------2-| 
D|-----------------4-------2-------|---------4-------1---------------| 
A|-0-------------------------------|-6-----------------------2-------| 
E|---------------------------------|---------------------------------|  

11 |       |       |       |         |       |       |       | 
e|-----0---0-----------2-0-2-------|---0-3-2-3---------2-5-----------| 
B|---0---4---0-1---0-4-------0-1---|-0---------0-1---0---------1-0---| 
G|-0-------------3---------------3-|---------------3---------------2-| 
D|-2---------------1---------------|-2---------------1---------------| 
A|---------2---------------2-------|---------2---------------2-------| 
E|---------------------------------|---------------------------------|   

13 |       |   tr  |       |         |       |       |       | 
e|-----0-2-3---2---0---------------|---------------------------8-7-5-| 
B|---0-----------------------0-1-3-|-1-------------0-----------------| 
G|-0-----------------2-1-----------|-----------0-2---2---------------| 
D|-2-------------------------------|---3-2-------------2-1-----------| 
A|-----3---0---2---3-------2-------|-0-------------------------------| 
E|---------------------------------|---------3-------2-------7-------|                                   

15 |       |       |       |         |       |       |       | 
e|-3-5-7-0-3-2-0---0-3-------------|-------0-2-----------0-----------| 
B|---------------4-----------2-0---|-0-2-4-----------------------4---| 
G|---------------------3---0-----3-|-------------2---0---------------| 
D|---------------------2-----------|-1---4---1-------2-------4-------| 
A|---------0---2---3-----------4---|-------------2-------3---0---2---| 
E|-0---3---------------------------|---------------------------------| 
  
17         |       |       |         |       |       |       | 
e|---------------------------------|---------------------------------| 
B|-----------------4---5-------5---|-----------------4---5-------5---| 
G|-------------4-------------------|-------------4-------------------| 
D|-----2-4-5---------------0-------|-----2-4-5-----------------------| 
A|---------------------------------|-3-----------------------2-------| 
E|-0-------------------------------|---------------------------------|      

19 |       |       |       |         |       |       |       I.... 
e|---------------------------------|---------------------------------| 
B|-----------------4---5-------5---|---3-----------------------------| 
G|-------------4-------------------|-----5-4-2-------------------2---| 
D|-----2-4-5-----------------------|-----------5-4-2-1-2-4-----------| 
A|-0-------------------------------|-0---------------2-----3-2-------| 
E|-------------------------3-------|---------------------------------|                                       

21 |       |       |       |         I.....  |       |       | 
e|---------------------------------|-------------------1-0-----------| 
B|-------------------------1-0-----|---1---------0-1-3-----3-5-3-----| 
G|-----------------0-2-4-0-----2-0-|-2---4-2-1-2-----------------5-4-| 
D|-5-4-2-----1-2-4-----------------|---------0-----------------------| 
A|-----------------3---------------|-----------------2---------------| 
E|-0-------3---------------0-------|-1-----------------------4-------|    

23 |       |       |       |         |       |       |       | 
e|-------------------0-----1-0-----|---1-0-------0-1-3-6-5-3-5-3-----| 
B|---------------0-1---3-1-----3-1-|-3-----3-2-3-----------------6-5-| 
G|-5-4-2-----1-2-------------------|---------0-----------------------| 
D|-----------------3---------------|-----------------2---------------| 
A|-0-------3---------------0-------|-2-----------------------4-------| 
E|---------------------------------|-----------------0---------------| 
  
25 |       |       |       |         |       |   I.. II..III | 
e|-------5-------5-------5-------3-|-1-0---0-1---1---------5---3---1-| 
B|-6-5-6---2-0-2---3-2-3---5-3-5---|-----3-----3---1-----------------| 
G|---------0-----------------------|-----------------3-2-3---3---3---| 
D|-0---------------3---------------|-0-------0-------5---3---2---0---| 
A|-------------------------0-------|---------------------------------| 
E|---------------------------------|---------------------------------|   

27 III........     |       |         I...    |       |       | 
e|-----------------------3---1---0-|-----------------------1---0-----| 
B|-5-3---3-5---5-------------------|-3-1---1-3---3-----------------3-| 
G|-----5-----5---3-2-0-2---2---2---|-----3-----3---2-0---0---0---0---| 
D|---------------------2---0-------|-------------------3-0-------2---| 
A|-3-------3-------------------3---|-1---0-------------------4-------| 
E|-----------------1---------------|---------3---1---0---------------|    

29 |       |       |       |         |       |       |       | 
e|-------------------------0-------|-------------------------0-------| 
B|-2-0-----------------------------|---------3-----------------------| 
G|-----2-------------3-2-0---0-----|---2-0-------------3-2-0---0-----| 
D|-----------2-3-5-------------3-2-|-3-----3---3-2-0-------------3-2-| 
A|-0-------0-------4-------4-------|-0-------0-------4-------4-------| 
E|-----------------0---------------|---------------------------------|    

31 |       |       |       tr        |       |       |       | 
e|---------------------------------|-------------------------3-1-0---| 
B|---------3-----------------------|-----------4-3-2-3-------------3-| 
G|---2-0---------------------1-0---|-0-1-0---0-----------2-----------| 
D|-3-----3---3-2-0-1-3-1-0-1-----4-|-------4-------------0-----------| 
A|-5---------------------------0---|-1-----------------------0---0---| 
E|---------1-------3---------------|-------------0---1---------------| 
   
33 |       |       |       |         |       |   II..III............ 
e|-----1-------------------5---6---|-----0-------------------4---5---| 
B|-3-----3-------------5-6---------|---------------------4-5---------| 
G|---------2---3-------------------|-------5-----2-------------------| 
D|-0-----------0---0-----------0---|---------6-----------------------| 
A|---------------4-----------------|-3-----------3-2-3-----------3---| 
E|---------------------------------|---------------------------------| 
   
35 |       |       |       |         |       |       |       | 
e|---3-1-0-------------------------|-------0-------0-------0---------| 
B|---------3-1-0-------0-----3-1-0-|-1-0-1-------------------0---0-3-| 
G|---------------2-1-2-------------|---------1---1---2-1-2-----2-----| 
D|-----------------------3-2-------|---------0-4-------------2-------| 
A|-2-------------------------------|-0---------------3---------------| 
E|-----------------0---------------|---------------------------------| 
   
37 |       |       |       |         |       |       |       | 
e|-----------------------0---------|---------------------------------| 
B|-1-0---0-1---1-------------3---1-|-0-------0---0---------3---1---0-| 
G|-----2-----2---0-----------------|---2-0-2---0---------------------| 
D|-----------------3-2-3---3---3---|---------------3-2-0-2---2---2---| 
A|-0-------0-------5---3---2---0---|-----------------3---2---0-------| 
E|---------------------------------|-3-------3-------------------3---|    

39 |       II..... |   I.. |         |       |       |       | 
e|---------------------------------|---------7---------------7-------| 
B|-----------------------1---0-----|---6-5-----6-5-----6-5-----6-5---| 
G|-2-0---0-2---2-----------------2-|-------7-------7-------7-------7-| 
D|-----3-----3---2-1---1---1---1---|-6---------------6---------------| 
A|---------5---3---2-4-0-------2---|---------------------------------| 
E|-1---0-------------------2-------|-0-------0-------0---------------| 
   
41 |       |       |       |        III.............................. 
e|---------0---------------0-------|---------5---------------5-------| 
B|-2-------------------------------|---4-3-----4-3-----4-3-----4-3---| 
G|---3-2-0---3-2-0---3-2-0---3-2-0-|-------5-------5-------5-------5-| 
D|---------------------------------|-4---------------4---------------| 
A|-0---------------4---------------|-5-------5-------5---------------| 
E|-----------------5---------------|---------------------------------|   

43 |       |       |       |        I............................. 
e|---------------------------------|---------3---------------3-------| 
B|-0-------3---------------3-------|---2-1-----2-1-----2-1-----2-1---| 
G|---1-0-----1-0-----1-0-----1-0---|-------3-------3-------3-------3-| 
D|-------3-------3-------3-------3-|-2---------------2---------------| 
A|-----------------2---------------|-3-------3-------3---------------| 
E|-3-------3-------3---------------|---------------------------------|   

45 |       |       |       |         |       |       |       | 
e|-------------1-------------------|---------------------------------| 
B|-------2-3-----------------------|-3-------------------------------| 
G|-2-0-2-------------2-1-----2-4-5-|-------------1-2-4---------------| 
D|---------3---------------0-------|---3-2-----4---------------3-2-0-| 
A|-----------------2---------------|---------2---------4-5-----------| 
E|-1-------------------------------|-4---------------0-------4-------|   

47 |       |       |       |         |       |       |       | 
e|---------------------------------|---------------------------1-0---| 
B|---------------------------------|-----1-0-1---------0-3---------3-| 
G|-----2-1-2---------1-4-2-4-------|---2-----------------------------| 
D|---2-------2-3-1-2---------2-3-1-|-2---------2-3-1-2---------------| 
A|-3-------------------------------|-0-------------------------------| 
E|-5-------0-------4-------0-------|---------0-------4-------0-------| 
   
49         |   tr  III..   |         |       |       |       | 
e|---0-5-7-8---7---5---------0-1-3-|-1-------------0-----------1-0---| 
B|-1-----------------3-------------|-----------1-3---3-------------3-| 
G|---------------------6-----------|---3-2-------------2-1-----------| 
D|-----3-----------3-------2-------|-0-------------------------------| 
A|-0-------5---6-------------------|---------3-------2---------------| 
E|---------------------------------|-------------------------0-------|   

51 |       |       |       |         |       |  VII..|       | 
e|---------------------------6-5-4-|-5---0--10-8-7-----7-8---8-7-----| 
B|-1-3-1-0-1-6-5-4-5-6-5-4-5-------|--------------10-10---10----10-8-| 
G|---------------------------------|-----------------8---------------| 
D|-----------------------------0---|---------------------------------| 
A|-0-----------2---3---------------|-3---0-------7---9---------------| 
E|---------------------------------|---------0-----------------------|            

53 V...... |        |       |        |       |       |       | 
e|-----5---------------------------|-4-------------------------------| 
B|-7-8---7-10-8-----10-------------|-5---------------------3-5-3-6-5-| 
G|-5-----------11-9-8--------------|-4-------------1-2-4-5-----------| 
D|-7----------------9--------------|-0---------2-4---2---------------| 
A|---------------------------------|-----------------3---------------| 
E|------------------7--------------|---------------------------------|   

55 |       |       |       |         |       |       |       | 
e|---------------------5-------4---|-5------------------------------| 
B|-3-----------------------0-------|-5------------------------------| 
G|---5-4-2-1-----------------------|-5------------------------------| 
D|-2---------3-2-0-----3---0---2---|-7------------------------------| 
A|-----------------3---------------|-0------------------------------| 
E|-4---------------5---------------|--------------------------------| 
  

top 5 | johann sebastian bach
top música clássica
Outras músicas do artista letras do(a) Johann Sebastian Bach
Top cifras »Top artistas »
Petaxxon Comunicação Online
Cifras.com.br - Melhor e mais completo site de cifras e tablaturas do Brasil
Mais de 1 milhão de acordes de músicas cadastradas desde 2003
As informações contidas no nosso site são colaborações de seus usuários e podem conter erros, sendo assim, não nos responsabilizamos sobre nenhuma destas.
close
menos
mais
close
Cor dos acordes:

Cor da letra:

 

save
close
close
 
redimensionar