Cifras e Tablaturas
John Anderson

John Anderson

Swingin' (ver. 2)

Cifras Cancelar Versão de Impressão Print

John Anderson - Swingin' (ver. 2)

Tom: B

  			STANDARD TUNING 
 
Intro 
   B                                   A 
|------------------------------------------------------ 
|--4-4-4-4-4-4-4-4-4-4-4-4-4-4-4-4-----2-2-2-2-2-2-2-2- 
|--4-4-4-4-4-4-4-4-4-4-4-4-4-4-4-4-----2-2-2-2-2-2-2-2- 
|--4-4-4-4-4-4-4-4-4-4-4-4-4-4-4-4-----2-2-2-2-2-2-2-2- 
|--2-2-2-2-2-2-2-2-2-2-2-2-2-2-2-2-1-1-0-0-0-0-0-0-0-0- 
|------------------------------------------------------ 
 
|-------------------| 
|--2-2-2-2-2-2-2-2--| 
|--2-2-2-2-2-2-2-2--| 
|--2-2-2-2-2-2-2-2--| 
|--0-0-0-0-0-0-0-0--| 
|-------------------| 
 
Verse 
   E 
|-------------------| 
|-------------------| 
|-------------------|repeat 
|-------------------| 
|--2-2-4-4-5-5-4-4--| 
|--0-0-0-0-0-0-0-0--| 
 
Chorus 
   A                               E 
|--0-0-0-0-0-0-0-0-0-0-0-0-0-0-0-0-0-0-0-0-0-0-0-0- 
|--2-2-2-2-2-2-2-2-2-2-2-2-2-2-2-2-0-0-0-0-0-0-0-0- 
|--2-2-2-2-2-2-2-2-2-2-2-2-2-2-2-2-1-1-1-1-1-1-1-1- 
|--2-2-2-2-2-2-2-2-2-2-2-2-2-2-2-2-2-2-2-2-2-2-2-2- 
|--0-0-0-0-0-0-0-0-0-0-0-0-0-0-0-0-2-2-2-2-2-2-2-2- 
|----------------------------------0-0-0-0-0-0-0-0- 
                   B7 
|--0-0-0-0-0-0-0-0-2-2-2-2-2-2-2-2-2-2-2-2-2-2-2-2-2- 
|--0-0-0-0-0-0-0-0-4-4-4-4-4-4-4-4-4-4-4-4-4-4-4-4-4- 
|--1-1-1-1-1-1-1-1-2-2-2-2-2-2-2-2-2-2-2-2-2-2-2-2-2- 
|--2-2-2-2-2-2-2-2-4-4-4-4-4-4-4-4-4-4-4-4-4-4-4-4-4- 
|--2-2-2-2-2-2-2-2-2-2-2-2-2-2-2-2-2-2-2-2-2-2-2-2-2- 
|--0-0-0-0-0-0-0-0----------------------------------- 
   A                                E 
|--0-0-0-0-0-0-0-0-0-0-0-0-0-0-0-0--0-0-0-0-0-0-0-0-- 
|--2-2-2-2-2-2-2-2-2-2-2-2-2-2-2-2--0-0-0-0-0-0-0-0-- 
|--2-2-2-2-2-2-2-2-2-2-2-2-2-2-2-2--1-1-1-1-1-1-1-1-- 
|--2-2-2-2-2-2-2-2-2-2-2-2-2-2-2-2--2-2-2-2-2-2-2-2-- 
|--0-0-0-0-0-0-0-0-0-0-0-0-0-0-0-0--2-2-2-2-2-2-2-2-- 
|-----------------------------------0-0-0-0-0-0-0-0-- 
 
 

    	

enviado porenviado por: weezer pillows
cifra enviadaCorrigida por: sem correções
logo top cifrasComente
ico música do artistaMúsicas deste artista
ico curtiuCurtiu?
ico destaqueDestaque
Petaxxon Comunicação Online

Cifras.com.br - Melhor e mais completo site de cifras e tablaturas do Brasil Mais de 1 milhão de acordes de músicas cadastradas desde 2003
As informações contidas no nosso site são colaborações de seus usuários e podem conter erros, sendo assim, não nos responsabilizamos sobre nenhuma destas.

close
menos
mais
close
Cor dos acordes:

Cor da letra:

close
Alinhar acordes a direita Alinhar acordes a esquerda Alinhar acordes em baixo Alinhar acordes no topo
close
  Mostrar todos os acordes Esconder acordes muito fáceis Esconder acordes fáceis Esconder acordes intermediários
redimensionar
glossário