Cifras e Tablaturas
John Coltrane

John Coltrane

Some Other Blues

Cifras Cancelar Versão de Impressão
cifras

John Coltrane - Some Other Blues

fixar na tela  
Exibindo: vídeo-aula ver clipes redimensionar
  

       F7               Bb7              F7               B7 
e|----|----------------|----------------|----------------|----------------| 
B|----|6-6-8---6-6-8---|----6-------6---|----------------|----------------| 
G|--5-|------8-------5-|8-----5-8-----5-|----------------|----------------| 
D|----|----------------|----------------|----------7-----|----------------| 
A|----|----------------|----------------|------------8-6-|----------------| 
E|----|----------------|----------------|----------------|----------------| 

  Bb7              Eb7              Ab7              Db7 
e|----------------|----------------|----------------|----------------| 
B|--------------6-|7-8-------------|----------------|----------------| 
G|6-7---------7---|----8-7-6---8-5-|----------3-----|----------------| 
D|----8-7-6-8-----|----------8-----|------------4---|----------------| 
A|----------------|----------------|--------------6-|----------------| 
E|----------------|----------------|----------------|----------------| 

                                   |---1st------Ending---------------| 
  C7               Bb7             |F7                               | 
e|----------------|----------------|----------------|----------------| 
B|------5-8---5-8-|6---------------|----------------|----------------| 
G|5---5-----5-----|----7-----------|----------------|--------------5-| 
D|----------------|--------8---5---|----------------|----------------| 
A|----------------|--------------8-|--------8---8---|----------------| 
E|----------------|----------------|----------------|----------------| 
  
 |-----2nd---Ending----------------| 
 |F7                               | 
e|----------------|----------------| 
B|----------------|----------------| 
G|----------------|----------------| 
D|----------------|----------------| 
A|------6---8-----|----------------| 
E|----------------|----------------|  
  

cifra enviadasem correções
enviado porenviada por:gustsilva
top 5 | john coltrane
top jazz
Outras músicas do artista letras do(a) John Coltrane
Top cifras »Top artistas »
Petaxxon Comunicação Online
Cifras.com.br - Melhor e mais completo site de cifras e tablaturas do Brasil
Mais de 1 milhão de acordes de músicas cadastradas desde 2003
As informações contidas no nosso site são colaborações de seus usuários e podem conter erros, sendo assim, não nos responsabilizamos sobre nenhuma destas.
close
menos
mais
close
Cor dos acordes:

Cor da letra:

 

save
close
close
 
redimensionar