Cifras e Tablaturas
John Mayer

John Mayer

Little Red Corvette

Cifras Cancelar Versão de Impressão
cifras

John Mayer - Little Red Corvette

fixar na tela  
Exibindo: vídeo-aula ver clipes redimensionar

Tom:

  
E|---------------------------|--------------------------------| 
B|---------------------------|--------------------------------| 
G|--------------------7------|--------------------7-----------| 
D|--------7----9------9----7-|--------7----9------9----7-(7)--| 
A|--------5----7-----------5-|--------5----7-----------5-(5)--| 
E|-----3-----5-----7-----3---|-----3-----5-----7-----3--------| 

                         T            T 

E|---------------------------------------|--------------------------------| 
B|----------------------------------(16)-|--------------------------------| 
G|--------------------7-(19)--------(16)-|--------------------7-----------| 
D|--------7----9------9-(19)-----7--(16)-|--------7----9------9----7------| 
A|--------5----7-----------------5-------|--------5----7-----------5------| 
E|---3-3-----5-----7---------3-----------|-----3-----5-----7-----3--------| 


Play around with this during the verses: 


E|--------------------------------| 
B|--------------------------------| 
G|--------------------7---(4)-----| 
D|--------7----9------9----7------| 
A|--------5----7-----------5------| 
E|-----3-----5-----7-----3--------| 


I guess I shoulda known by the way you parked your car sideways.... 

Chorus: 
Little red corvette                           baby you're much too fast.... 


E|---------------------------10--------------------------------------------| 
B|--------------------10-----10h12--10---10--------------(0)---------------| 
G|----------------------------------9h11-9h11-------------7----------------| 
D|-----7----9-------------------------------------7---9---9----------------| 
A|-----5----7-------------------------------------5---7--------------------| 
E|-----3----5----0-10-10--------------------------3---5---7----------------| 


E|---------------------------10---------------------------------------| 
B|--------------------10-----10h12--10---10---------------------------| 
G|----------------------------------9h11-9----------------------------| 
D|-----7----9-------------------------------------7-7--9--------------| 
A|-----5----7-------------------------------------5-5--7--------------| 
E|-----3----5----0-10-10--------------------------3-3--5--------------| 


(Verse) 

Chorus: 


E|-------------------------------------------------------------------------| 
B|--------------------10----/10--------------------------(0)---------------| 
G|--------------------------/11---7h9--7------------------7----------------| 
D|-----7----9-------------------------------------7---9---9----------------| 
A|-----5----7-------------------------------------5---7--------------------| 
E|-----3----5----0-10-10--------------------------3---5---7----------------| 


E|---------------------------10---------------------------------------| 
B|--------------------10-----10h12--10---10---------------------------| 
G|----------------------------------9h11-11---------------------------| 
D|-----7----9-------------------------------------7-7--9--------------| 
A|-----5----7-------------------------------------5-5--7--------------| 
E|-----3----5----0-10-10--------------------------3-3--5--------------| 


Outro: 

This is all the ooohhhs... 
                         On the third repeat skip chord 579xxx and do this: 

E|-------------------------------|-----|---------------------------------| 
B|-------------------------------|-----|---------------------------------| 
G|-------------------7-7-x-------|-----|--11-11-x-7-7-x------------------| 
D|-----7-7-x--9-9-x--9-9-x-9-9-x-|-(3x)|--12-12-x-9-9-x-(2x)-------------| 
A|-----5-5-x--7-7-x------x-7-7-x-|-----|--------x-----x------------------| 
E|-----3-3-x--5-5-x--7-7-x-5-5-x-|-----|--10-10-x-7-7-x------------------| 
  

top 5 | john mayer
top rock'n roll
Outras músicas do artista letras do(a) John Mayer
1.
Xo
Top cifras »Top artistas »
Petaxxon Comunicação Online
Cifras.com.br - Melhor e mais completo site de cifras e tablaturas do Brasil
Mais de 1 milhão de acordes de músicas cadastradas desde 2003
As informações contidas no nosso site são colaborações de seus usuários e podem conter erros, sendo assim, não nos responsabilizamos sobre nenhuma destas.
close
menos
mais
close
Cor dos acordes:

Cor da letra:

 

save
close
close
 
redimensionar