Cifras e Tablaturas
Joji

Joji

Pills

Cifras Cancelar Versão de Impressão
cifras

Joji - Pills

fixar na tela  
Exibindo: vídeo-aula ver clipes redimensionar

Tom:

  
Main Riff 
e|---------------------------------------------------------------------------| 
B|---------------------------------------------------------------------------| 
G|-----1-----------------1-----------------1-----------------1---------------| 
D|-----------2-----2-----------2-----2-----------2-----2-----------2-----2---| 
A|---------------------------------------------------------------------------| 
E|--------0-----0-----0-----0-----0-----0-----0-----0-----0-----0-----0-----0| 

e|---------------------------------------------------------------------------| 
B|---------------------------------------------------------------------------| 
G|-----2-----------------2-----------------2-----------------2---------------| 
D|-----------4-----4-----------4-----4-----------4-----4-----------4-----4---| 
A|---------------------------------------------------------------------------| 
E|--------0-----0-----0-----0-----0-----0-----0-----0-----0-----0-----0-----0| 
  

top 5 | joji
top rock'n roll
Outras músicas do artista letras do(a) Joji
Top cifras »Top artistas »
Petaxxon Comunicação Online
Cifras.com.br - Melhor e mais completo site de cifras e tablaturas do Brasil
Mais de 1 milhão de acordes de músicas cadastradas desde 2003
As informações contidas no nosso site são colaborações de seus usuários e podem conter erros, sendo assim, não nos responsabilizamos sobre nenhuma destas.
close
menos
mais
close
Cor dos acordes:

Cor da letra:

 

save
close
close
 
redimensionar