Cifras e Tablaturas
Joji

Joji

World$tar Money

Cifras Cancelar Versão de Impressão
cifras

Joji - World$tar Money

fixar na tela  
Exibindo: vídeo-aula ver clipes redimensionar

Tom:

  Intro  

E|--5---------5-----|5----7--7--7----7----7| 
B|--5---------5-----|5----5--5--5----5----5| 
G|--5---------5-----|5----5--5--5----5----5| 
D|--5---------5-----|5----5--5--5----5----5| 
A|--0---------0-----|0----0--0--0----0----0| 
E|------------------|----------------------| 

E|--5---------5-----|5----7--7--7----7----7| 
B|--5---------5-----|5----5--5--5----5----5| 
G|--5---------5-----|5----5--5--5----5----5| 
D|--0---------0-----|0----0--0--0----0----0| 
A|------------------|----------------------| 
E|------------------|----------------------| 

E|--2---------2-----|2----3--3--3----3----3| 
B|--0---------0-----|0----0--0--0----0----0| 
G|--0---------0-----|0----0--0--0----0----0| 
D|--0---------0-----|0----0--0--0----0----0| 
A|------------------|----------------------| 
E|------------------|----------------------| 

E|--2---------2-----|2----3--3--3----3----3| 
B|--0---------0-----|0----0--0--0----0----0| 
G|--0---------0-----|0----0--0--0----0----0| 
D|--0---------0-----|0----0--0--0----0----0| 
A|------------------|----------------------| 
E|------------------|----------------------| 

E|--5---------5-----|5----7--7--7----7----7| 
B|--5---------5-----|5----5--5--5----5----5| 
G|--5---------5-----|5----5--5--5----5----5| 
D|--5---------5-----|5----5--5--5----5----5| 
A|--0---------0-----|0----0--0--0----0----0| 
E|------------------|----------------------| 

E|--5---------5-----|5----7--7--7----7----7| 
B|--5---------5-----|5----5--5--5----5----5| 
G|--5---------5-----|5----5--5--5----5----5| 
D|--0---------0-----|0----0--0--0----0----0| 
A|------------------|----------------------| 
E|------------------|----------------------| 

E|--2---------2-----|2----3--3--3----3----3| 
B|--0---------0-----|0----0--0--0----0----0| 
G|--0---------0-----|0----0--0--0----0----0| 
D|--0---------0-----|0----0--0--0----0----0| 
A|------------------|----------------------| 
E|------------------|----------------------| 

E|--2---------2-----|2----3--3--3----3----3| 
B|--0---------0-----|0----0--0--0----0----0| 
G|--0---------0-----|0----0--0--0----0----0| 
D|--0---------0-----|0----0--0--0----0----0| 
A|------------------|----------------------| 
E|------------------|----------------------| 


 Verso 

E|--5---------5-----|5----7--7--7----7----7| 
B|--5---------5-----|5----5--5--5----5----5| 
G|--5---------5-----|5----5--5--5----5----5| 
D|--5---------5-----|5----5--5--5----5----5| 
A|--0---------0-----|0----0--0--0----0----0| 
E|------------------|----------------------| 
  I look at you and say 

E|--5---------5-----|5----7--7--7----7----7| 
B|--5---------5-----|5----5--5--5----5----5| 
G|--5---------5-----|5----5--5--5----5----5| 
D|--0---------0-----|0----0--0--0----0----0| 
A|------------------|----------------------| 
E|------------------|----------------------| 
 oh, oh, oh... 

E|--2---------2-----|2----3--3--3----3----3| 
B|--0---------0-----|0----0--0--0----0----0| 
G|--0---------0-----|0----0--0--0----0----0| 
D|--0---------0-----|0----0--0--0----0----0| 
A|------------------|----------------------| 
E|------------------|----------------------| 
 oh baby, 

E|--2---------2-----|2----3--3--3----3----3| 
B|--0---------0-----|0----0--0--0----0----0| 
G|--0---------0-----|0----0--0--0----0----0| 
D|--0---------0-----|0----0--0--0----0----0| 
A|------------------|----------------------| 
E|------------------|----------------------| 
 ...am i crazy? 

E|--5---------5-----|5----7--7--7----7----7| 
B|--5---------5-----|5----5--5--5----5----5| 
G|--5---------5-----|5----5--5--5----5----5| 
D|--5---------5-----|5----5--5--5----5----5| 
A|--0---------0-----|0----0--0--0----0----0| 
E|------------------|----------------------| 
                     so   tenderly,  
  
E|--5---------5-----|5----7--7--7----7----7| 
B|--5---------5-----|5----5--5--5----5----5| 
G|--5---------5-----|5----5--5--5----5----5| 
D|--0---------0-----|0----0--0--0----0----0| 
A|------------------|----------------------| 
E|------------------|----------------------| 
 you watch me burn, you watch me burn, oh 

E|--2---------2-----|2----3--3--3----3----3| 
B|--0---------0-----|0----0--0--0----0----0| 
G|--0---------0-----|0----0--0--0----0----0| 
D|--0---------0-----|0----0--0--0----0----0| 
A|------------------|----------------------| 
E|------------------|----------------------| 
                   so tell me... 

E|--2---------2-----|2----3--3--3----3----3| 
B|--0---------0-----|0----0--0--0----0----0| 
G|--0---------0-----|0----0--0--0----0----0| 
D|--0---------0-----|0----0--0--0----0----0| 
A|------------------|----------------------| 
E|------------------|----------------------| 
 ...am i crazy? 

  

E|--------5---------|-----------7----------| 
B|--------5---------|-----------5----------| 
G|--------5---------|-----------5----------| 
D|--------5---------|-----------5----------| 
A|--------0---------|-----------0----------| 
E|------------------|----------------------| 
  
E|--------5---------|-----------7----------| 
B|--------5---------|-----------5----------| 
G|--------5---------|-----------5----------| 
D|--------0---------|-----------0----------| 
A|------------------|----------------------| 
E|------------------|----------------------| 

E|--------2---------|-----------3----------| 
B|--------0---------|-----------0----------| 
G|--------0---------|-----------0----------| 
D|--------0---------|-----------0----------| 
A|------------------|----------------------| 
E|------------------|----------------------| 
'cause I do...  

E|--------2---------|-----------3----------| 
B|--------0---------|-----------0----------| 
G|--------0---------|-----------0----------| 
D|--------0---------|-----------0----------| 
A|------------------|----------------------| 
E|------------------|----------------------| 
'cause I do...  

E|--------5---------|-----------7----------| 
B|--------5---------|-----------5----------| 
G|--------5---------|-----------5----------| 
D|--------5---------|-----------5----------| 
A|--------0---------|-----------0----------| 
E|------------------|----------------------| 
  
E|--------5---------|-----------7----------| 
B|--------5---------|-----------5----------| 
G|--------5---------|-----------5----------| 
D|--------0---------|-----------0----------| 
A|------------------|----------------------| 
E|------------------|----------------------| 

E|--------2---------|-----------3----------| 
B|--------0---------|-----------0----------| 
G|--------0---------|-----------0----------| 
D|--------0---------|-----------0----------| 
A|------------------|----------------------| 
E|------------------|----------------------| 
'cause I do...  

E|--------2---------|-----------3----------| 
B|--------0---------|-----------0----------| 
G|--------0---------|-----------0----------| 
D|--------0---------|-----------0----------| 
A|------------------|----------------------| 
E|------------------|----------------------| 
'cause I do...  

E|--------5---------|-----------7----------| 
B|--------5---------|-----------5----------| 
G|--------5---------|-----------5----------| 
D|--------5---------|-----------5----------| 
A|--------0---------|-----------0----------| 
E|------------------|----------------------| 
  
E|--------5---------|-----------7----------| 
B|--------5---------|-----------5----------| 
G|--------5---------|-----------5----------| 
D|--------0---------|-----------0----------| 
A|------------------|----------------------| 
E|------------------|----------------------| 

E|--------2---------|-----------3----------| 
B|--------0---------|-----------0----------| 
G|--------0---------|-----------0----------| 
D|--------0---------|-----------0----------| 
A|------------------|----------------------| 
E|------------------|----------------------| 
'cause I do...  

E|--------2---------|-----------3----------| 
B|--------0---------|-----------0----------| 
G|--------0---------|-----------0----------| 
D|--------0---------|-----------0----------| 
A|------------------|----------------------| 
E|------------------|----------------------| 
'cause I do...  


Final 
E|--5---------5-----|5----7--7--7----7----7| 
B|--5---------5-----|5----5--5--5----5----5| 
G|--5---------5-----|5----5--5--5----5----5| 
D|--5---------5-----|5----5--5--5----5----5| 
A|--0---------0-----|0----0--0--0----0----0| 
E|------------------|----------------------| 
     Ooh, 

E|--5---------5-----|5----7--7--7----7----7| 
B|--5---------5-----|5----5--5--5----5----5| 
G|--5---------5-----|5----5--5--5----5----5| 
D|--0---------0-----|0----0--0--0----0----0| 
A|------------------|----------------------| 
E|------------------|----------------------| 
  Ah la la la la la la    la  la  la 

E|--2---------2-----|2----3--3--3----3----3| 
B|--0---------0-----|0----0--0--0----0----0| 
G|--0---------0-----|0----0--0--0----0----0| 
D|--0---------0-----|0----0--0--0----0----0| 
A|------------------|----------------------| 
E|------------------|----------------------| 
la la, 

E|--2---------2-----|2----3--3--3----3----3| 
B|--0---------0-----|0----0--0--0----0----0| 
G|--0---------0-----|0----0--0--0----0----0| 
D|--0---------0-----|0----0--0--0----0----0| 
A|------------------|----------------------| 
E|------------------|----------------------| 
goddamn. 

E|--5---------5-----|5----7--7--7----7----7| 
B|--5---------5-----|5----5--5--5----5----5| 
G|--5---------5-----|5----5--5--5----5----5| 
D|--5---------5-----|5----5--5--5----5----5| 
A|--0---------0-----|0----0--0--0----0----0| 
E|------------------|----------------------| 
    Ooh,    oh, 

E|--5---------5-----|5----7--7--7----7----7| 
B|--5---------5-----|5----5--5--5----5----5| 
G|--5---------5-----|5----5--5--5----5----5| 
D|--0---------0-----|0----0--0--0----0----0| 
A|------------------|----------------------| 
E|------------------|----------------------| 
I don't wanna die, 

E|--2---------2-----|2----3--3--3----3----3| 
B|--0---------0-----|0----0--0--0----0----0| 
G|--0---------0-----|0----0--0--0----0----0| 
D|--0---------0-----|0----0--0--0----0----0| 
A|------------------|----------------------| 
E|------------------|----------------------| 
I don't wanna die, 

E|--2---------2-----|2----3--3--3----3----3| 
B|--0---------0-----|0----0--0--0----0----0| 
G|--0---------0-----|0----0--0--0----0----0| 
D|--0---------0-----|0----0--0--0----0----0| 
A|------------------|----------------------| 
E|------------------|----------------------| 
I don't wanna die... 
  

top 5 | joji
top rock'n roll
Outras músicas do artista letras do(a) Joji
Top cifras »Top artistas »
Petaxxon Comunicação Online
Cifras.com.br - Melhor e mais completo site de cifras e tablaturas do Brasil
Mais de 1 milhão de acordes de músicas cadastradas desde 2003
As informações contidas no nosso site são colaborações de seus usuários e podem conter erros, sendo assim, não nos responsabilizamos sobre nenhuma destas.
close
menos
mais
close
Cor dos acordes:

Cor da letra:

 

save
close
close
 
redimensionar