Cifras e Tablaturas
Jon Bellion

Jon Bellion

Luxury

Cifras Cancelar Versão de Impressão
cifras

Jon Bellion - Luxury

fixar na tela  
Exibindo: vídeo-aula ver clipes redimensionar

Tom:

D

ver outros tons
  Intro 
Original key, but the low D is substituted for a high D 
e|---------------------------------------------------------------------------| 
B|---------------------------------------------------------------------------| 
G|-----6-6---------------------6-6-------------------------------------------| 
D|-----------7-4---------------------7-4-----4-7-----------------------------| 
A|---------------7-----------------------7-7---------------------------------| 
E|---5-----5-----------------5-----5-----------------------------------------| 

e|---------------------------------------------------------------------------| 
B|---------------------------------------------------------------------------| 
G|-----6-6---------------------6-6-------------------------------------------| 
D|-----------7-4---------------------7-4-----4-7-----------------------------| 
A|---5-----5-----7-----------5-----5-----7-7---------------------------------| 
E|---------------------------------------------------------------------------| 
  

cifra enviadasem correções
enviado porenviada por:tercmoraes
top 5 | jon bellion
top rock'n roll
Outras músicas do artista letras do(a) Jon Bellion
Top cifras »Top artistas »
Petaxxon Comunicação Online
Cifras.com.br - Melhor e mais completo site de cifras e tablaturas do Brasil
Mais de 1 milhão de acordes de músicas cadastradas desde 2003
As informações contidas no nosso site são colaborações de seus usuários e podem conter erros, sendo assim, não nos responsabilizamos sobre nenhuma destas.
close
menos
mais
close
Cor dos acordes:

Cor da letra:

 

save
close
close
 
redimensionar