Cifras e Tablaturas
Jon Hopkins

Jon Hopkins

Abandon Window

Cifras Cancelar Versão de Impressão
cifras

Jon Hopkins - Abandon Window

fixar na tela  
Exibindo: vídeo-aula ver clipes redimensionar
  
   B      D#m  F# 
e|-11-----14-|--------| 
B|-----------|-11-----| 
G|-8------11-|--------| 
D|-----------|-11-----| 
A|-9------13-|-9------| 
E|-7------11-|--------| 

   A#m    D#m  A#m 
e|-9---------|--------| 
B|--------7--|-12-----| 
G|-6---------|--------| 
D|--------8--|-13-----| 
A|-8------6--|-11-----| 
E|-6---------|--------| 

   F#m    C#/E#   B 
e|--------------|------| 
B|-11-----9--7--|------| 
G|--------6-----|-8----| 
D|-11-----------|-9----| 
A|-9------8-----|-9----| 
E|--------------|-7----| 


e |---------|-------| 
B |-4-----7-|-------| 
G |---------|-3-----| 
D |-1-----4-|-------| 
A |---------|-4-----| 
E |-2-----6-|-2-----| 
Bb|-1-----5-|-------| 

e |---------|-------| 
B |-2-------|-------| 
G |---------|-4-----| 
D |-------4-|-------| 
A |-4-------|-6-----| 
E |-1-----6-|-4-----| 
Bb|-0-----5-|-------| 

e |------------|-------| 
B |------------|-------| 
G |-3-----1----|-------| 
D |----------4-|-1-----| 
A |-4-----4----|-2-----| 
E |-2-----1----|-2-----| 
Bb|------------|-1-----| 

Play entire chord progression seven times 
  

cifra enviadasem correções
enviado porenviada por:paulantunes
top 5 | jon hopkins
top rock'n roll
Outras músicas do artista letras do(a) Jon Hopkins
Top cifras »Top artistas »
Petaxxon Comunicação Online
Cifras.com.br - Melhor e mais completo site de cifras e tablaturas do Brasil
Mais de 1 milhão de acordes de músicas cadastradas desde 2003
As informações contidas no nosso site são colaborações de seus usuários e podem conter erros, sendo assim, não nos responsabilizamos sobre nenhuma destas.
close
menos
mais
close
Cor dos acordes:

Cor da letra:

 

save
close
close
 
redimensionar