Cifras e Tablaturas
Jorge e Mateus

Jorge e Mateus

Amor Não É Jogo de Azar

Ano: 2010
Album : Jorge & Mateus - Ao Vivo Sem Cortes

Cifras Cancelar Versão de Impressão

Jorge e Mateus - Amor Não É Jogo de Azar

Tom: F#

  			Introdução 

e|---------------2h1------1h2p2-4-2--2-2-2-1---1-1-1-1 
B|--2-2-4-2--2-2----4-2-4--------------------4-------- 
G|-3-3------3-3--------------------------------------- 
D|---------------------------------------------------- 
A|---------------------------------------------------- 
E|---------------------------------------------------- 

e|------------4-7h6p4- 
B|4-2-4-2-4-2--------7 
G|-------------------- 
D|-------------------- 
A|-------------------- 
E|-------------------- 

Acho que é isso...abraços! 
Caverna(UNESP _ GUARÁ) 
    	
fixar
fixar inscrever-se

enviado porenviado por: caverna_feg
cifra enviadaCorrigida por: sem correções
logo top cifrasComente
ico música do artistaMúsicas deste artista
ico curtiuCurtiu?
ico destaqueDestaque
Petaxxon Comunicação Online

Cifras.com.br - Melhor e mais completo site de cifras e tablaturas do Brasil Mais de 1 milhão de acordes de músicas cadastradas desde 2003
As informações contidas no nosso site são colaborações de seus usuários e podem conter erros, sendo assim, não nos responsabilizamos sobre nenhuma destas.

close
menos
mais
close
Cor dos acordes:

Cor da letra:

close
Alinhar acordes a direita Alinhar acordes a esquerda Alinhar acordes em baixo Alinhar acordes no topo
close
  Mostrar todos os acordes Esconder acordes muito fáceis Esconder acordes fáceis Esconder acordes intermediários
redimensionar
glossário