Cifras e Tablaturas
Jorge e Mateus

Jorge e Mateus

Fogueira

Cifras Cancelar Versão de Impressão

Jorge e Mateus - Fogueira

Tom: Bm

  			Intro.: 

E|--------------------------------2--------------------------------------------| 
B|------------------0-0-0-0-3-3-----------2-2-0--------------------------------| 
G|-----------------------------------2-2--------2--4-4-4-4-2--2h4-2------------| 
D|--------0--------------------------------------------------------------------| 
A|----0h2----4--2--------------------------------------------------------------| 
E|-----------------------------------------------------------------------------| 

E|--------------------------------14-------------------------------------------| 
B|------------------0-0-0-0-3-3---12-----------2-2-0---------------------------| 
G|---------------------------------------2-2--------2--4-4-4-4-2--2/4-2--------| 
D|--------0--------------------------------------------------------------------| 
A|----0h2----4--2--------------------------------------------------------------| 
E|-----------------------------------------------------------------------------| 


add por guilherme milhomem d pso 



    	
fixar
fixar inscrever-se

enviado porenviado por: belerme
cifra enviadaCorrigida por: sem correções
logo top cifrasComente
ico música do artistaMúsicas deste artista
ico curtiuCurtiu?
ico destaqueDestaque
Petaxxon Comunicação Online

Cifras.com.br - Melhor e mais completo site de cifras e tablaturas do Brasil Mais de 1 milhão de acordes de músicas cadastradas desde 2003
As informações contidas no nosso site são colaborações de seus usuários e podem conter erros, sendo assim, não nos responsabilizamos sobre nenhuma destas.

close
menos
mais
close
Cor dos acordes:

Cor da letra:

close
Alinhar acordes a direita Alinhar acordes a esquerda Alinhar acordes em baixo Alinhar acordes no topo
close
  Mostrar todos os acordes Esconder acordes muito fáceis Esconder acordes fáceis Esconder acordes intermediários
redimensionar
glossário