Cifras e Tablaturas
Jorge e Mateus

Jorge e Mateus

O Amor Não É Paixão

Cifras Cancelar Versão de Impressão

Jorge e Mateus - O Amor Não É Paixão

Tom: C

  			    C 
E|--------------------------------| 
B|-----1--------------------------| 
G|-------0---0--------------------| 
D|---2-----2---2-2h3-3/5-5--------|    2x 
A|-3------------------------------| 
E|--------------------------------| 
 
E|--------------------------------| 
B|-8--3h5-------5-5-5-3-1-1/3-5-5-| 
G|---------5/7~-------------------| 
D|--------------------------------| 
A|--------------------------------| 
E|--------------------------------| 
 
      C 
Telefona quando é madrugada diz que não consegue mais dormir  
           F                                                      C 
E pra não ficar sozinha em casa diz que vai sair  
              G                                            F 
Que o desejo já tomou seu corpo pegou fogo no seu coração  
          C                              G                         C 
Você diz que é amor, eu respondo que é só paixão  

C 
Tem ciúmes de tudo que eu faço de um sorriso de um simples abraço  
                                                                         F 
Dos amigos e até nos meus sonhos você quer entrar  

Dividir comigo o mesmo copo  
 C                           Am        Dm                               G                           C 
Me afastar até do violão você diz que é amor, eu respondo que é só paixão  

F 
O amor não é inconsequente só quem tem sabe entender a gente  
                                                                 C 
E você não sente quando eu preciso ficar sozinho  
                                               D 
A paixão é muito egoísta não divide e nem sabe dar  
           F                   G                           C 
Desse jeito vai ficar difícil, eu não vou te amar  

Refrão: 
                 F              G                     C 
O amor não é paixão como um rio não é o mar  
Am                 Dm           G                   C 
Ter amor não é só gostar na paixão só existe prazer  
                 F              G                     C 
O amor não é assim só quem tem pode entender  
  Am                 Dm                    G                   C 
Que a paixão quando faz sofrer passou a ser solidão 

Solo: 
E|----------------------------------------| 
B|-5-6-8-8-6-6--8-6-6-8/10-8-6-5-5--------| 
G|----------------------------------------| 
D|----------------------------------------| 
A|----------------------------------------| 
E|----------------------------------------| 
 
E|----------------------------------------| 
B|-6-5-5-6/8-6-5-3-3-1-1-1-0--------------| 
G|---------------------------2--2/5-5-4---| 
D|--------------------------------------5-| 
A|----------------------------------------| 
E|----------------------------------------| 
 
F 
O amor não é inconsequente só quem tem sabe entender a gente  
                                                                 C 
E você não sente quando eu preciso ficar sozinho  
                                               D 
A paixão é muito egoísta não divide e nem sabe dar  
           F                   G                           C 
Desse jeito vai ficar difícil, eu não vou te amar  

Refrão: 
                 F              G                     C 
O amor não é paixão como um rio não é o mar  
Am                 Dm           G                   C 
Ter amor não é só gostar na paixão só existe prazer  
                 F              G                     C 
O amor não é assim só quem tem pode entender  
  Am                 Dm                    G                   C 
Que a paixão quando faz sofrer passou a ser solidão 

Solo: 
E|--------------------------------------------| 
B|-5-6-8-8/10-8-8-10--------------------------| 
G|-------------------7-5-5-5---5---5---7/9-5~-| 
D|--------------------------------------------| 
A|--------------------------------------------| 
E|--------------------------------------------| 
    	
fixar
fixar inscrever-se

enviado porenviado por: gustsilva
cifra enviadaCorrigida por: sem correções
logo top cifrasComente
ico música do artistaMúsicas deste artista
ico curtiuCurtiu?
ico destaqueDestaque
Petaxxon Comunicação Online

Cifras.com.br - Melhor e mais completo site de cifras e tablaturas do Brasil Mais de 1 milhão de acordes de músicas cadastradas desde 2003
As informações contidas no nosso site são colaborações de seus usuários e podem conter erros, sendo assim, não nos responsabilizamos sobre nenhuma destas.

close
menos
mais
close
Cor dos acordes:

Cor da letra:

close
Alinhar acordes a direita Alinhar acordes a esquerda Alinhar acordes em baixo Alinhar acordes no topo
close
  Mostrar todos os acordes Esconder acordes muito fáceis Esconder acordes fáceis Esconder acordes intermediários
redimensionar
glossário