Cifras e Tablaturas
Jorge e Mateus

Jorge e Mateus

O Que Os Olhos Não Veem O Coração Não Sente

Cifras Cancelar Versão de Impressão

Jorge e Mateus - O Que Os Olhos Não Veem O Coração Não Sente

Tom: E

  			(intro) 

               E              G#m 
E|---------------------------------| 
B|---------4-4h5-4h5-5h7p5---------| 
G|4-4-4-4-6--------------------4---| 
D|---------------------------------| 
A|---------------------------------| 
E|---------------------------------| 


                A                   B 
E|----------4-4h5-4h5-4h5---------------| 
B|-5-5-5-5-7--------------------5-5/7---| 
G|--------------------------------------| 
D|--------------------------------------| 
A|--------------------------------------| 
E|--------------------------------------| 


                E              G#m 
E|------------------------------7--| 
B|----------4-4h5-4h5-5h7p5--------| 
G|4-4-4-4-6------------------------| 
D|---------------------------------| 
A|---------------------------------| 
E|---------------------------------| 


                    A     B 
E|-4-4-4-5-7-7/9-7--4----| 
B|--------------------5/7--| 
G|-------------------------| 
D|-------------------------| 
A|-------------------------| 
E|-------------------------| 
    	
fixar
fixar inscrever-se

enviado porenviado por: bcbk10
cifra enviadaCorrigida por: sem correções
logo top cifrasComente
ico música do artistaMúsicas deste artista
ico curtiuCurtiu?
ico destaqueDestaque
Petaxxon Comunicação Online

Cifras.com.br - Melhor e mais completo site de cifras e tablaturas do Brasil Mais de 1 milhão de acordes de músicas cadastradas desde 2003
As informações contidas no nosso site são colaborações de seus usuários e podem conter erros, sendo assim, não nos responsabilizamos sobre nenhuma destas.

close
menos
mais
close
Cor dos acordes:

Cor da letra:

close
Alinhar acordes a direita Alinhar acordes a esquerda Alinhar acordes em baixo Alinhar acordes no topo
close
  Mostrar todos os acordes Esconder acordes muito fáceis Esconder acordes fáceis Esconder acordes intermediários
redimensionar
glossário