Cifras e Tablaturas
Josh Groban

Josh Groban

Believe From Polar Express

Cifras Cancelar Versão de Impressão
cifras

Josh Groban - Believe From Polar Express

fixar na tela  
Exibindo: vídeo-aula ver clipes redimensionar
  Intro 
  C                CM7               C                CM7 
e|-------3--------|--------3--------|---------0------|----------------| 
B|-1--------------|--0--------------|--1----3--------|--0-------------| 
G|-------------0--|-------------0---|-------------0--|----------0-----| 
D|----------------|-----------------|----------------|----------------| 
A|-3--------------|--3--------------|--3-------------|--3-------------| 
E|----------------|-----------------|----------------|----------------| 

Verse 
  Dm               B                 Dm               C    G 
e|----------------|-----------------|------------0-1-|-0--------------| 
B|----------3-----|-----------------|-------3--------|-----3----1-----| 
G|-------------2--|--4--------------|------2---------|----------------| 
D|--0-------------|---------4-------|--0-------------|----------------| 
A|----------------|-----------------|----------------|-3--------3-----| 
E|----------------|-----------------|----------------|-----3----------| 


C, CM7 

verse 1 
C        CM7       C              CM7      Dm 
Children sleeping, Snow is softly falling 
            B       Dm                 C  G 
Dreams are calling, Likes bells in the distance 
C       Em/G      C           Em/G    Dm 
We were dreamers, Not so long ago 
           B      Dm               F    G 
But one by one, We all had to grow up 

Bridge 
Em                              F 
When it seems the magic slipped away 
   A#                             G 
We find it all again on Christmas Day 

tabrefrão
Chorus C Dm Believe in what your heart is saying Em F Hear the melody that's playing C Em There's no time to waste Dm G There's so much to celebrate C Dm Believe in what you feel inside Em E7 Am And give your dreams the wings to fly Dm G You have everything you need C Em/G If you just believe
refrão
verse 2 C Em/G C Em/G Dm Trains move quickly, To their journey's end B Dm F G Destinations, Are where we begin again C Em/G C Em/G Dm Ships go sailing, Far across the sea B Dm F G Trusting starlight, To get where they need to be Bridge Em F When it seems that we have lost our way A# G We find ourselves again on Christmas Day
tabrefrão
Chorus C Dm Believe in what your heart is saying Em F Hear the melody that's playing C Em There's no time to waste Dm G There's so much to celebrate C Dm Believe in what you feel inside Em E7 Am And give your dreams the wings to fly Dm G You have everything you need
refrão
Outro C Dm Em If you just believe F C Em Dm If you just believe G C Dm Em If you just believe F C Em Dm If you just believe G C Dm Em Just believe F C Em Dm F C Just believe Chords EADGBe Am x02210 A# x13331 B x24442 C x32010 Dm xx0231 Em 022000 Em/G 322000 F 133211 G 320003 or 320033

cifra enviadasem correções
enviado porenviada por:adalgomes
top 5 | josh groban
top romântica
Outras músicas do artista letras do(a) Josh Groban
Top cifras »Top artistas »
Petaxxon Comunicação Online
Cifras.com.br - Melhor e mais completo site de cifras e tablaturas do Brasil
Mais de 1 milhão de acordes de músicas cadastradas desde 2003
As informações contidas no nosso site são colaborações de seus usuários e podem conter erros, sendo assim, não nos responsabilizamos sobre nenhuma destas.
close
menos
mais
close
Cor dos acordes:

Cor da letra:

 

save
close
close
 
redimensionar