Cifras e Tablaturas
Joshua Aaron

Joshua Aaron

Hoshiana

Cifras Cancelar Versão de Impressão
cifras

Joshua Aaron - Hoshiana

fixar na tela  
Exibindo: vídeo-aula ver clipes redimensionar

Tom:

  
Intro 
         Am                          Am/G             
e|-------0--------|-------0----|-------0--------|-------0------|------------------| 
B|-1-------1------|-1/3-----1--|---------1------|-1/3-----1---1|------------------| 
G|-----2-----2---2|-----0-----2|-----0-----0---0|-----0-----0--|------------------| 
D|---2---------2--|------------|---2---------2--|--------------|------------------| 
A|-0--------------|------------|----------------|--------------|------------------| 
E|----------------|------------|-3--------------|--------------|------------------| 
        Am/F#                            F           Am/G   
e|-------0---------|-------0----|-------0--------|-------------|------------------| 
B|---------1------1|-----1------|---------1------|------1p0---0|------------------| 
G|-----2-----2-----|---2-------2|-----2-----2----|----0-----0--|------------------| 
D|---0---------0---|-0-------0--|---3---------3--|--0----------|------------------| 
A|-----------------|------------|----------------|-------------|------------------| 
E|-2---------------|------------|-1--------------|3------------|------------------| 

Verse 
               
e|-------0------|-------0------|--1-----1----|--------------------| 
B|-1-----------1|-------------1|------3-----3|------1-1/3-3\1-0-1-| 
G|-----2-----2--|-----0-----0--|----2-----2--|------2-2/4-4\2-----| 
D|---2-----2----|---2-----2----|--0----------|----0---------------| 
A|-0------------|--------------|-------------|--0-----------------| 
E|--------------|-3------------|-------------|--------------------| 

e|-------0------|-------0----|-------1|---------------| 
B|--------------|------------|-----3--|-----0-1-1-0---| 
G|-----2-----2--|-----0-----0|---2----|-------2-2---2-| 
D|---2-----2----|---2-----2--|-0------|---2-----------| 
A|-0------------|------------|--------|-0-------------| 
E|--------------|-3----------|--------|---------------| 

2nd half of verse strum Am Am/G Dm Am x2 

Pre Chorus Am Am/G Dm Am Am/G  
Chorus Am Am/G Am/F# Am/F  

Outro 
e|-------0------|-------0------|-------1|--------------| 
B|-------------0|-------------1|-----3--|---1-3-3p2----| 
G|-----2-----2--|-----0-----0--|---2----|---2---2------| 
D|---2-----2----|---2-----2----|-0------|-----------4-2| 
A|-0------------|--------------|--------|-0------------| 
E|--------------|-3------------|--------|--------------| 

e|-------0------|-------0------|-------1|-0--| 
B|-------------1|-------------1|-----3--|-1--| 
G|-----2-----2--|-----0-----0--|---2----|-2--| 
D|---2-----2----|---2-----2----|-0------|-2--| 
A|-0------------|--------------|--------|-0--| 
E|--------------|-3------------|--------|----| 


************************************ 

| x   Dead note 
| p   Pull-off 
| /   Slide up 
| \   Slide down 

************************************ 
  

cifra enviadasem correções
enviado porenviada por:renejunior
top 5 | joshua aaron
top rock'n roll
Outras músicas do artista letras do(a) Joshua Aaron
Top cifras »Top artistas »
Petaxxon Comunicação Online
Cifras.com.br - Melhor e mais completo site de cifras e tablaturas do Brasil
Mais de 1 milhão de acordes de músicas cadastradas desde 2003
As informações contidas no nosso site são colaborações de seus usuários e podem conter erros, sendo assim, não nos responsabilizamos sobre nenhuma destas.
close
menos
mais
close
Cor dos acordes:

Cor da letra:

 

save
close
close
 
redimensionar