Cifras e Tablaturas
Judas Priest

Judas Priest

Firepower

Cifras Cancelar Versão de Impressão
cifras

Judas Priest - Firepower

fixar na tela  
Exibindo: vídeo-aula ver clipes redimensionar
  
C |------------------------------------------------------------------| 
G |------------------------------------------------------------------| 
D#|-8-----7-----5-----2-------------8-----7-----5----2---------------| 
A#|-8-----7-----5-----2-------------8-----7-----5----2---------------| 
F#|---0-0---0-0---0-0---0-0-5-7-0-0---0-0---0-0---------0-0-0-0-0-0--| 
C |-------------------------3-5--------------------------------------| 
      * *   * *   * *   * *     * *   * *   * *         * * * * * * 


C |-----------------------------------------------------------------| 
G |-----------------------------------------------------------------| 
D#|-8-----7-----5-----2---------------------------------------------| 
A#|-8-----7-----5-----2-------------5-5-5-7-7-7-8-8-8-7-7-7-----7~~-| 
F#|---0-0---0-0---0-0---0-0-5-7-0-0-3-3-3-5-5-5-6-6-6-5-5-5-3-0-----| 
C |-------------------------3-5-------------------------------------| 
      * *   * *   * *   * *     * *   



0;11 

C |------------------------------------------------------------------| 
G |------------------------------------------------------------------| 
D#|-8-----7-----5-----2-------------8-----7-----5----2---------------| 
A#|-8-----7-----5-----2-------------8-----7-----5----2---------------| 
F#|---0-0---0-0---0-0---0-0-5-7-0-0---0-0---0-0---------0-0-0-0-0-0--| 
C |-------------------------3-5--------------------------------------| 
      * *   * *   * *   * *     * *   * *   * *         * * * * * * 


C |-----------------------------------------------------------------| 
G |-----------------------------------------------------------------| 
D#|-8-----7-----5-----2---------------------------------------------| 
A#|-8-----7-----5-----2-------------5-5-5-7-7-7-8-8-8-7-7-7-----7~~-| 
F#|---0-0---0-0---0-0---0-0-5-7-0-0-3-3-3-5-5-5-6-6-6-5-5-5-3-0-----| 
C |-------------------------3-5-------------------------------------| 
      * *   * *   * *   * *     * *   




0:20 


C |-----------------------------------------------------------------| 
G |-----------------------------------------------------------------| 
D#|-9-----9-----9-----9-----5-5-5-5-7-----7-----7-----7-----5-5-5-5-| 
A#|-7-7-7-7-7-7-7-7-7-7-7-7-3-3-3-3-5-5-5-5-5-5-5-5-5-5-5-5-2-2-2-2-| 
F#|-----------------------------------------------------------------| 
C |-----------------------------------------------------------------| 
      * *   * *   * *   * *           * *   * *   * *   * *  

C |-----------------------------------------------------------------| 
G |-----------------------------------------------------------------| 
D#|-5-----5-----5-----5-----2-2-2-2-4-----4-----4-----4-----9-9-9-9-| 
A#|-3-3-3-3-3-3-3-3-3-3-3-3-0-0-0-0-2-2-2-2-2-2-2-2-2-2-2-2-6-6-6-6-| 
F#|-----------------------------------------------------------------| 
C |-----------------------------------------------------------------| 
      * *   * *   * *   * *           * *   * *   * *   * *  




C |-----------------------------------------------------------------| 
G |-----------------------------------------------------------------| 
D#|-9-----9-----9-----9-----5-5-5-5-7-----7-----7-----7-----5-5-5-5-| 
A#|-7-7-7-7-7-7-7-7-7-7-7-7-3-3-3-3-5-5-5-5-5-5-5-5-5-5-5-5-2-2-2-2-| 
F#|-----------------------------------------------------------------| 
C |-----------------------------------------------------------------| 
      * *   * *   * *   * *           * *   * *   * *   * *  

C |-----------------------------------------------------------------| 
G |-----------------------------------------------------------------| 
D#|-5-----5-----5-----5-----2-2-2-2-4-----4-----4-----4-----9-9-9-9-| 
A#|-3-3-3-3-3-3-3-3-3-3-3-3-0-0-0-0-2-2-2-2-2-2-2-2-2-2-2-2-6-6-6-6-| 
F#|-----------------------------------------------------------------| 
C |-----------------------------------------------------------------| 
      * *   * *   * *   * *           * *   * *   * *   * *  





0:41 


C |------------------------------------------------------------------| 
G |------------------------------------------------------------------| 
D#|-8-----7-----5-----2-------------8-----7-----5----2---------------| 
A#|-8-----7-----5-----2-------------8-----7-----5----2---------------| 
F#|---0-0---0-0---0-0---0-0-5-7-0-0---0-0---0-0---------0-0-0-0-0-0--| 
C |-------------------------3-5--------------------------------------| 
      * *   * *   * *   * *     * *   * *   * *         * * * * * * 


C |-----------------------------------------------------------------| 
G |-----------------------------------------------------------------| 
D#|-8-----7-----5-----2---------------------------------------------| 
A#|-8-----7-----5-----2-------------5-5-5-7-7-7-8-8-8-7-7-7-----7~~-| 
F#|---0-0---0-0---0-0---0-0-5-7-0-0-3-3-3-5-5-5-6-6-6-5-5-5-3-0-----| 
C |-------------------------3-5-------------------------------------| 
      * *   * *   * *   * *     * *   

fill 
C |---------------------------------------------------------| 
G |----13-)-13-)--15-)-15-)-16-)-16-)-15-)-15-)-------------| 
D#|----16---16----18---18---19---19---18---18---17\14-14~---| 
A#|---------------------------------------------------------| 
F#|---------------------------------------------------------| 
C |-\-------------------------------------------------------| 





0:51 


C |-----------------------------------------------------------------| 
G |-----------------------------------------------------------------| 
D#|-9-----9-----9-----9-----5-5-5-5-7-----7-----7-----7-----5-5-5-5-| 
A#|-7-7-7-7-7-7-7-7-7-7-7-7-3-3-3-3-5-5-5-5-5-5-5-5-5-5-5-5-2-2-2-2-| 
F#|-----------------------------------------------------------------| 
C |-----------------------------------------------------------------| 
      * *   * *   * *   * *           * *   * *   * *   * *  

C |-----------------------------------------------------------------| 
G |-----------------------------------------------------------------| 
D#|-5-----5-----5-----5-----2-2-2-2-4-----4-----4-----4-----9-9-9-9-| 
A#|-3-3-3-3-3-3-3-3-3-3-3-3-0-0-0-0-2-2-2-2-2-2-2-2-2-2-2-2-6-6-6-6-| 
F#|-----------------------------------------------------------------| 
C |-----------------------------------------------------------------| 
      * *   * *   * *   * *           * *   * *   * *   * *  




C |-----------------------------------------------------------------| 
G |-----------------------------------------------------------------| 
D#|-9-----9-----9-----9-----5-5-5-5-7-----7-----7-----7-----5-5-5-5-| 
A#|-7-7-7-7-7-7-7-7-7-7-7-7-3-3-3-3-5-5-5-5-5-5-5-5-5-5-5-5-2-2-2-2-| 
F#|-----------------------------------------------------------------| 
C |-----------------------------------------------------------------| 
      * *   * *   * *   * *           * *   * *   * *   * *  

C |-----------------------------------------------------------------| 
G |-----------------------------------------------------------------| 
D#|-5-----5-----5-----5-----2-2-2-2-4-----4-----4-----4-----9-9-9-9-| 
A#|-3-3-3-3-3-3-3-3-3-3-3-3-0-0-0-0-2-2-2-2-2-2-2-2-2-2-2-2-6-6-6-6-| 
F#|-----------------------------------------------------------------| 
C |-----------------------------------------------------------------| 
      * *   * *   * *   * *           * *   * *   * *   * *  



1:11 



C |------------------------------------------------------------------| 
G |------------------------------------------------------------------| 
D#|-8-----7-----5-----2-------------8-----7-----5----2---------------| 
A#|-8-----7-----5-----2-------------8-----7-----5----2---------------| 
F#|---0-0---0-0---0-0---0-0-5-7-0-0---0-0---0-0---------0-0-0-0-0-0--| 
C |-------------------------3-5--------------------------------------| 
      * *   * *   * *   * *     * *   * *   * *         * * * * * * 


C |-----------------------------------------------------------------| 
G |-----------------------------------------------------------------| 
D#|-8-----7-----5-----2---------------------------------------------| 
A#|-8-----7-----5-----2-------------5-5-5-7-7-7-8-8-8-7-7-7-----7~~-| 
F#|---0-0---0-0---0-0---0-0-5-7-0-0-3-3-3-5-5-5-6-6-6-5-5-5-3-0-----| 
C |-------------------------3-5-------------------------------------| 
      * *   * *   * *   * *     * *   




1:21 


1 
C |------^--------^--------------^--------^-----------------------^-----------15-13-12-------------| 
G |----13-12-10-13-12-10-13----13-12-10-13-12-10-12----15-13-12-13-12-10-12------------15-13-12----| 
D#|-14----------------------10----------------------12----------------------9-------------------14-| 
A#|------------------------------------------------------------------------------------------------| 
F#|------------------------------------------------------------------------------------------------| 
C |------------------------------------------------------------------------------------------------| 

2 
C |------------------------------------------------------------------------------------------------| 
G |-/13-------10--------13----/18---18-----17-----15------------------17-17-17--18--17--17---------| 
D#|-----------------------------------------------------16----12-----------------------------------| 
A#|------------------------------------------------------------------------------------------------| 
F#|------------------------------------------------------------------------------------------------| 
C |------------------------------------------------------------------------------------------------| 

3 
C |------------------------------------------------------------------------------------------------| 
G |------------------------------------------------------------------------------------------------| 
D#|------------------------------------------------------------------------------------------------| 
A#|-14------------------------10------------------12-----------------10----------------------------| 
F#|-12-------------------------8------------------10------------------7----------------------------| 
C |------------------------------------------------------------------------------------------------| 






1:26 

1 
C |------------------------------------------------------------------------------------| 
G |------------------------------------------------------------------------------------| 
D#|-10-14-12-10-14-12-10-------10-------10--------------------------------9~--11~--13~-| 
A#|----------------------14-12----14-12----14-12-10-9-12-10-9-12-10-9------------------| 
F#|-------------------------------------------------------------------12---------------| 
C |------------------------------------------------------------------------------------| 

2 
C |------------------------------------------------------------------------------------| 
G |------------------------------------------------------------------------------------| 
D#|-17------14-------------14--------16-------17------16------13----------13---14---16-| 
A#|----------------15-----------------------------------------------14-----------------| 
F#|------------------------------------------------------------------------------------| 
C |------------------------------------------------------------------------------------| 

3 
C |------------------------------------------------------------------------------------| 
G |------------------------------------------------------------------------------------| 
D#|------------------------------------------------------------------------------------| 
A#|-10------------------------7------------------9------------------13-----------------| 
F#|--8------------------------5------------------7------------------11-----------------| 
C |------------------------------------------------------------------------------------| 




1:32 

1 
C |---------------------------------------------------------------------------------12-------------| 
G |----13-12-10-13-12-10-12----13-12-10-13-12-10-12----15-13-12-13-12-10-12-9---9-------15-13-12---| 
D#|-14----------------------10----------------------12------------------------9---9----------------| 
A#|------------------------------------------------------------------------------------------------| 
F#|------------------------------------------------------------------------------------------------| 
C |------------------------------------------------------------------------------------------------| 

2 
C |----------------------------------------------------13-12----12-----------------------15-13-12------| 
G |-13-17-15-13-17-15-13-15-13-17-15-13-17-15-13-15-12-------15-----15-13-15-12----12--------------15--| 
D#|-----------------------------------------------------------------------------13---------------------| 
A#|-----------------------------------------------------------------------------------14---------------| 
F#|----------------------------------------------------------------------------------------------------| 
C |----------------------------------------------------------------------------------------------------| 

3 
C |------------------------------------------------------------------------------------------------| 
G |------------------------------------------------------------------------------------------------| 
D#|------------------------------------------------------------------------------------------------| 
A#|-14------------------------10------------------12------------------6----------------------------| 
F#|-12-------------------------8------------------10------------------7----------------------------| 
C |------------------------------------------------------------------------------------------------| 




1 
C |---------------__---------------------------------------| 
G |--------------/  \--------------------------------------| 
D#|-14~--14~---12-14-12-10--/14--12--10--9~~---------------| 
A#|--------------------------------------------------------| 
F#|--------------------------------------------------------| 
C |--------------------------------------------------------| 

2                 __ 
C |--------------/  \--------------------------------------| 
G |-13~--13~---12-13-12-10---13--12-10--9~~----------------| 
D#|--------------------------------------------------------| 
A#|--------------------------------------------------------| 
F#|--------------------------------------------------------| 
C |--------------------------------------------------------| 

3 
C |--------------------------------------------------------| 
G |--------------------------------------------------------| 
D#|--------------------------------------------------------| 
A#|-7------------------10------------9--------9------------| 
F#|-5-------------------8------------7--------7------------| 
C |--------------------------------------------------------| 



1:43 

C |-------------------------------------------------------------------| 
G |-------------------------------------------------------------------| 
D#|-------------------------------------------------------------------| 
A#|-8-8-8-2-----5-5-5-2-------------8-8-8-2-----5-5-5-2---------------| 
F#|-6-6-6-0-0-0-3-3-3-0-0-0-5-7-0-0-6-6-6-0-0-0-3-3-3-0-0-0-5-7-0-0---| 
C |-------------------------3/5-----------------------------3/5-------| 
            * *         * *     * *         * *         * *     * * 


C |---------------------------------------------------------------| 
G |---------------------------------------------------------------| 
D#|---------------------------------------------------------------| 
A#|-8-8-8-2-----5-5-5-2-------------8-8-8-2-----5-5-5-2-----------| 
F#|-6-6-6-0-0-0-3-3-3-0-0-0-5-7-0-0-6-6-6-0-0-0-3-3-3-0----2-2-2--| 
C |-------------------------3/5-----------------------------------| 
            * *         * *     * *         * *         |  * * * 




1:53 

1 
C |------------------------------------------------------------------------| 
G |------------------------------------------------------------------------| 
D#|-H-V-----+++++++++++++++++++++++++++~~~~~~~~~~~~~~~~~-V-----------------| 
A#|------------------------------------------------------------------------| 
F#|------------------------------------------------------------------------| 
C |------------------------------------------------------------------------| 

2 
C |------------------------------------------------------------------------| 
G |------------------------------------------------------------------------| 
D#|-5--5-----4--4-----2----------------5--5-----4--4-----2-----------------| 
A#|-3--3-----2--2-----0--4-------------3--3-----2--2-----0--4----4---------| 
F#|-------2--------2-----2--2-2-2-2-2--------2--------2-----2--0-2--2-2-2--| 
C |------------------------------------------------------------------------| 
          *        *        * * * * *        *        *             * * * 

                          
1            )()(                                                                                     )  
C |--------22-----19-22-19----)-19---)-19---)-19-------------------------------------17-19-22-17-19-17--| 
G |-------------------------22-----22-----22-----22-19-17-22-17-19----17-19-22-17-19--------------------| 
D#|++++------------------------------------------------------------19-----------------------------------| 
A#|-----------------------------------------------------------------------------------------------------| 
F#|-----------------------------------------------------------------------------------------------------| 
C |-----------------------------------------------------------------------------------------------------| 

2 
C |------------------------------------------------------------------------| 
G |------------------------------------------------------------------------| 
D#|-5--5-----4--4-----2----------------5--5-----4--4-----2-----------------| 
A#|-3--3-----2--2-----0--4-------------3--3-----2--2-----0--4----4---------| 
F#|-------2--------2-----2--2-2-2-2-2--------2--------2-----2--0-2--2-2-2--| 
C |------------------------------------------------------------------------| 
          *        *        * * * * *        *        *             * * * 




2:02 
                                                     __                __ 
1                                                   /  \              /  \        ^                 ) 
C |-----------------------------------------------10-14-10----------14-19-14----19-14-------------22--| 
G |--------------------------------------------12----------12----15----------15-------15----15-19-----| 
D#|-------------------------------------7~--12----------------16-------------------------16-----------| 
A#|-------------------------------7-8-9---------------------------------------------------------------| 
F#|-------------5-6-7-5-6-7-7-8-9---------------------------------------------------------------------| 
C |-5-6-7-5-6-7---------------------------------------------------------------------------------------| 
    * * * * * * * * * * * * * * * * * *  

2 
C |------------------------------------------------------------------------| 
G |------------------------------------------------------------------------| 
D#|-5--5-----4--4-----2----------------5--5-----4--4-----2-----------------| 
A#|-3--3-----2--2-----0--4-------------3--3-----2--2-----0--4----4---------| 
F#|-------2--------2-----2--2-2-2-2-2--------2--------2-----2--0-2--2-2-2--| 
C |------------------------------------------------------------------------| 
          *        *        * * * * *        *        *             * * * 


       
1     )                             )(                                )~~~ 
C |-22---------------22~~~~~~~----24----22-20-17--------------------17------| 
G |-------------------------------------------------------------------------| 
D#|-----------------------------------------------21-19-17------------------| 
A#|--------------------------------------------------------19-16-14---------| 
F#|-------------------------------------------------------------------------| 
C |-------------------------------------------------------------------------| 

2 
C |-------------------------------------------------------------------------| 
G |-------------------------------------------------------------------------| 
D#|-5--5-----4--4-----2----------------5--5-----4--4-----2------------------| 
A#|-3--3-----2--2-----0--4-------------3--3-----2--2-----0--4----4----------| 
F#|-------2--------2-----2--2-2-2-2-2--------2--------2-----2--0-2--2-2-2-2-| 
C |-------------------------------------------------------------------------| 
          *        *        * * * * *        *        *             * * * * 




2:12 


C |------------------------------------------------------------------| 
G |------------------------------------------------------------------| 
D#|-5-5-5-------2-2-2---------------5-5-5-------2-2-2----------------| 
A#|-3-3-3-4-----0-0-0-4-------4-----3-3-3-4-----0-0-0-4-------4------| 
F#|-------2-2-2-------2-2-2-0-2-2-2-------2-2-2-------2-2-2-0-2-2-2--| 
C |------------------------------------------------------------------| 
            * *         * *     * *         * *         * *     * * 


C |------------------------------------------------------------------------------------------------------| 
G |------------------------------------------------------------------------------------------------------| 
D#|-5-----4-----2----------------------------------------------------------------------------------------| 
A#|-3-----2-----0---4-----2-----5-5-4-----2-----5-5-4--------------------5-5-5-7-7-7-8-8-8-7-7-7------7~~| 
F#|---2-2---2-2-----2-2-2-0-0-0-3-3-2-2-2-0-0-0-3-3-2-2-2-5--7--8--------3-3-3-5-5-5-6-6-6-5-5-5-3-0-----| 
C |-------------------------------------------------------3--5--6----------------------------------------| 
      * *   * *       * *   * *       * *   * *       * *                 




2:27 


C |-----------------------------------------------------------------| 
G |-----------------------------------------------------------------| 
D#|-9-----9-----9-----9-----5-5-5-5-7-----7-----7-----7-----5-5-5-5-| 
A#|-7-7-7-7-7-7-7-7-7-7-7-7-3-3-3-3-5-5-5-5-5-5-5-5-5-5-5-5-2-2-2-2-| 
F#|-----------------------------------------------------------------| 
C |-----------------------------------------------------------------| 
      * *   * *   * *   * *           * *   * *   * *   * *  

C |-----------------------------------------------------------------| 
G |-----------------------------------------------------------------| 
D#|-5-----5-----5-----5-----2-2-2-2-4-----4-----4-----4-----9-9-9-9-| 
A#|-3-3-3-3-3-3-3-3-3-3-3-3-0-0-0-0-2-2-2-2-2-2-2-2-2-2-2-2-6-6-6-6-| 
F#|-----------------------------------------------------------------| 
C |-----------------------------------------------------------------| 
      * *   * *   * *   * *           * *   * *   * *   * *  



C |-----------------------------------------------------------------| 
G |-----------------------------------------------------------------| 
D#|-9-----9-----9-----9-----5-5-5-5-7-----7-----7-----7-----5-5-5-5-| 
A#|-7-7-7-7-7-7-7-7-7-7-7-7-3-3-3-3-5-5-5-5-5-5-5-5-5-5-5-5-2-2-2-2-| 
F#|-----------------------------------------------------------------| 
C |-----------------------------------------------------------------| 
      * *   * *   * *   * *           * *   * *   * *   * *  

C |--------------------------------------------------------------------------------------| 
G |-------------------------------------5-----6-----7-----8------------------------------| 
D#|-5-----5-----5-----5-----2-2-2-2---4-----5-----6-----7-----8-9------4--5--6--7--8--9--| 
A#|-3-3-3-3-3-3-3-3-3-3-3-3-0-0-0-0-2-----3-----4-----5-----6---7\-----4--5--6--7--8--9--| 
F#|--------------------------------------------------------------------2--3--4--5--6--7--| 
C |-----------------------------------------------------------------x--------------------| 
      * *   * *   * *   * *            



2:51 

C |-------------------------------------------------------| 
G |-------------------------------------------------------| 
D#|-------------------------------------------------------| 
A#|-8--7--5--2-----------8--7--5--------------------------| 
F#|-6--5--3--0---5-7-0-0-6--5--3-0-0-0-0-0-0-0-0-0-0-0-0--| 
C |--------------3-5--------------------------------------| 
                     * *         * * * * * * * * * * * *  


C |-------------------------------------------------------| 
G |-------------------------------------------------------| 
D#|-------------------------------------------------------| 
A#|-8--7--5--2-----------5-5-5-7-7-7-8-8-8-7-7-7------7~~-| 
F#|-6--5--3--0---5-7-0-0-3-3-3-5-5-5-6-6-6-5-5-5-3-0------| 
C |--------------3-5--------------------------------------| 
                     * *         


3:01 



C |------------------------------------------------------------------| 
G |------------------------------------------------------------------| 
D#|-8-----7-----5-----2-------------8-----7-----5----2---------------| 
A#|-8-----7-----5-----2-------------8-----7-----5----2---------------| 
F#|---0-0---0-0---0-0---0-0-5-7-0-0---0-0---0-0---------0-0-0-0-0-0--| 
C |-------------------------3-5--------------------------------------| 
      * *   * *   * *   * *     * *   * *   * *         * * * * * * 



C |---------------------------------------------------------------| 
G |---------------------------------------------------------------| 
D#|-8-----7-----5-----2-------------------------------------------| 
A#|-8-----7-----5-----2-------------5-5-5-7-7-7-8-8-8-7-7-7-------| 
F#|---0-0---0-0---0-0---0-0-5-7-0-0-3-3-3-5-5-5-6-6-6-5-5-5-0-0-0-| 
C |-------------------------3-5-----------------------------------| 
      * *   * *   * *   * *     * *                         * * * 



3:11 


C |--------------------------------------------------------------| 
G |--------------------------------------------------------------| 
D#|--------------------------------------------------------------| 
A#|-8-8-----7-7-----5-2------------8-8-----7-7-----5-2-----------| 
F#|-6-6--0--5-5--0--3-0--0-0-0-0-0-6-6--0--5-5--0--3-0-5-7-0-0-0-| 
C |----------------------------------------------------3-5-------| 
         *       *       * * * * *      *       *          * * * 


C |------------------------------------------------------------------------------------| 
G |------------------------------------------------------------------------------------| 
D#|------------------------------------------------------------------------------------| 
A#|-8--8-----7--7-----5--2------------8--8-----7--7-----5-2-----------2----------------| 
F#|-6--6--0--5--5--0--3--0--0-0-0-0-0-6--6--0--5--5--0--3-0-5-7-0-0-0-0----------------| 
C |---------------------------------------------------------3-5------------------------| 
          *        *        * * * * *       *        *          * * * 


fills 
C |------------------------| 
G |-16-)~---14-)---13-)----| 
D#|-19------17-----16------| 
A#|------------------------| 
F#|------------------------| 
C |------------------------| 


***************************************** 

*=palm mute 
)=bend 
~=vibrato 
   _ 
^,/ \=hammer on/pulloff 
***************************************** 
  

top 5 | judas priest
top heavy metal
Outras músicas do artista letras do(a) Judas Priest
Top cifras »Top artistas »
Petaxxon Comunicação Online
Cifras.com.br - Melhor e mais completo site de cifras e tablaturas do Brasil
Mais de 1 milhão de acordes de músicas cadastradas desde 2003
As informações contidas no nosso site são colaborações de seus usuários e podem conter erros, sendo assim, não nos responsabilizamos sobre nenhuma destas.
close
menos
mais
close
Cor dos acordes:

Cor da letra:

 

save
close
close
 
redimensionar