Cifras e Tablaturas
Judas Priest

Judas Priest

Lightning Strike

Cifras Cancelar Versão de Impressão

Judas Priest - Lightning Strike

Tom: A

  			
Intro 

E||------------------------|-------------------------| 
B||------------------------|-------------------------| 
G||------------------------|-------------------------| 
D||--9--9-------9--9-------|-7--7--------------------| 
A||--7--7-------7--7-------|-5--5-------7-----8p7p5--| 
E||-------0-0-0------0-0-0-|------0-0-0---0-0--------| 


E|-----------------------|-------------------------|| 
B|-----------------------|-------------------------|| 
G|-----------------------|-------------------------|| 
D|-9--9-------9--9-------|-------------------------|| x2 
A|-7--7-------7--7-------|-8--8--------------------|| 
E|------0-0-0------0-0-0-|-6--6-6-6-6-5-5-5-3-3-3--|| 


Fill A 
                         
E|-12-----12-----12-----12~~~~~~~---| 
B|-15b17--15b17--15b17--15b17~~~~~--| 
G|----------------------------------| 
D|----------------------------------| 
A|----------------------------------| 
E|----------------------------------| 


Verse 

E||--------------------------|--------------------------| 
B||--------------------------|--------------------------| 
G||--------------------------|--------------------------| 
D||--------------------------|--------------------------| 
A||--5---7-------5---7-------|-5---7-------7-----8p7p5--| 
E||----0---0-0-0---0---0-0-0-|---0---0-0-0---0-0--------| 


E|-------------------------|------------------------|| 
B|-------------------------|------------------------|| 
G|-------------------------|------------------------|| 
D|-------------------------|-------------------9----|| x2 
A|-5---7-------5---7-------|-5---7-------8p7p5-7----|| 
E|---0---0-0-0---0---0-0-0-|---0---0-0-0------------|| 


Pre-Chorus 

E|-----------------------|-----------------------| 
B|-----------------------|-----------------------| 
G|-----------------------|-----------------------| 
D|-----------------------|-5--5-------5--5-------| 
A|-2--2-------2--2-------|-3--3-3-3-3-3--3-3-3-3-| 
E|-0--0-0-0-0-0--0-0-0-0-|-----------------------| 


E|-----------------------|-----------------------| 
B|-----------------------|-----------------------| 
G|-----------------------|-----------------------| 
D|-----------------------|-2--2-------4--4-------| 
A|-5--5-------5--5-------|-0--0-0-0-0-2--2-2-2-2-| 
E|-3--3-3-3-3-3--3-3-3-3-|-----------------------| 


E|-----------------------|-----------------------| 
B|-----------------------|-----------------------| 
G|-----------------------|-----------------------| 
D|-5--5-------5--5-------|-----------------------| 
A|-3--3-3-3-3-3--3-3-3-3-|-5--5-------5--5-------| 
E|-----------------------|-3--3-3-3-3-3--3-3-3-3-| 


E|-----------------------|-----------------------| 
B|-----------------------|-----------------------| 
G|-----------------------|-----------------------| 
D|-7--7-------7--7-------|-9--9-------9--9-------| 
A|-5--5-5-5-5-5--5-5-5-5-|-6--6-6-6-6-6--6-6-6-6-| 
E|-----------------------|-----------------------| 


Chorus 

E|--------------|-----------------|----------------------|--------0----| 
B|--------------|-----------------|----------------------|--------0----| 
G|--------------|-----------------|----0--2-----2--(2)---|-------------| 
D|-2------------|-5--7--4--5------|-5--------2-----(2)---|-2-----------| 
A|-2------------|-7--9--5--7------|-3--------0-----(0)---|-2-----------| 
E|-0------------|-----------------|--------------------3-|-0-----------| 


E|--------------|-----------------|----------------------|------|---------------------| 
B|--------------|-----------------|----------------------|------|---------------------| 
G|--------------|-----------------|----0--2-----2--(2)---|------|---------------------| 
D|-2------------|-5--7--4--5------|-5--------2-----(2)---|-3----|-(3)-----------------| 
A|-2------------|-7--9--5--7------|-3--------0-----(0)---|-3----|-(3)------8--7--5----| 
E|-0------------|-----------------|--------------------3-|-1----|-(1)-----------------| 


Intro Riff 

E||------------------------|-------------------------| 
B||------------------------|-------------------------| 
G||------------------------|-------------------------| 
D||--9--9-------9--9-------|-7--7--------------------| 
A||--7--7-------7--7-------|-5--5-------7-----8p7p5--| 
E||-------0-0-0------0-0-0-|------0-0-0---0-0--------| 


E|-----------------------|-------------------------|| 
B|-----------------------|-------------------------|| 
G|-----------------------|-------------------------|| 
D|-9--9-------9--9-------|-------------------------|| x2 
A|-7--7-------7--7-------|-8--8--------------------|| 
E|------0-0-0------0-0-0-|-6--6-6-6-6-5-5-5-3-3-3--|| 


Fill B 
                         
E|-12-----12-----12-----12~~~~~~--|---------| 
B|-15b17--15b17--15b17--15b17~~~--|---------| 
G|--------------------------------|---------| 
D|--------------------------------|---------| 
A|--------------------------------|---------| 
E|--------------------------------|-0\\\----| 


E|---------------------|---------------------------|--------| 
B|---------------------|---------------------------|--------| 
G|-2b3=======2--2--2r--|-2h3p2-0-2-0---------------|--------| 
D|---------------------|-------------2-0-----------|-2~~----| 
A|---------------------|-----------------2-1-0-----|--------| 
E|---------------------|-----------------------3-0-|--------| 


verse 2 

E||--------------------------|--------------------------| 
B||--------------------------|--------------------------| 
G||--------------------------|--------------------------| 
D||--------------------------|--------------------------| 
A||--5---7-------5---7-------|-5---7-------7-----8p7p5--| 
E||----0---0-0-0---0---0-0-0-|---0---0-0-0---0-0--------| 


E|-------------------------|------------------------|| 
B|-------------------------|------------------------|| 
G|-------------------------|------------------------|| 
D|-------------------------|-------------------9----|| x2 
A|-5---7-------5---7-------|-5---7-------8p7p5-7----|| 
E|---0---0-0-0---0---0-0-0-|---0---0-0-0------------|| 


Fill C 

E|-12-----12-----12-----------------------| 
B|-15b17--15b17--15b17--17h18p17p15-17~~--| 
G|----------------------------------------| 
D|----------------------------------------| 
A|----------------------------------------| 
E|----------------------------------------| 


Pre-Chorus 

E|-----------------------|-----------------------| 
B|-----------------------|-----------------------| 
G|-----------------------|-----------------------| 
D|-----------------------|-5--5-------5--5-------| 
A|-2--2-------2--2-------|-3--3-3-3-3-3--3-3-3-3-| 
E|-0--0-0-0-0-0--0-0-0-0-|-----------------------| 


E|-----------------------|-----------------------| 
B|-----------------------|-----------------------| 
G|-----------------------|-----------------------| 
D|-----------------------|-2--2-------4--4-------| 
A|-5--5-------5--5-------|-0--0-0-0-0-2--2-2-2-2-| 
E|-3--3-3-3-3-3--3-3-3-3-|-----------------------| 


E|-----------------------|-----------------------| 
B|-----------------------|-----------------------| 
G|-----------------------|-----------------------| 
D|-5--5-------5--5-------|-----------------------| 
A|-3--3-3-3-3-3--3-3-3-3-|-5--5-------5--5-------| 
E|-----------------------|-3--3-3-3-3-3--3-3-3-3-| 


E|-----------------------|-----------------------| 
B|-----------------------|-----------------------| 
G|-----------------------|-----------------------| 
D|-7--7-------7--7-------|-9--9-------9--9-------| 
A|-5--5-5-5-5-5--5-5-5-5-|-6--6-6-6-6-6--6-6-6-6-| 
E|-----------------------|-----------------------| 


Chorus 

E|--------------|-----------------|----------------------|--------0----| 
B|--------------|-----------------|----------------------|--------0----| 
G|--------------|-----------------|----0--2-----2--(2)---|-------------| 
D|-2------------|-5--7--4--5------|-5--------2-----(2)---|-2-----------| 
A|-2------------|-7--9--5--7------|-3--------0-----(0)---|-2-----------| 
E|-0------------|-----------------|--------------------3-|-0-----------| 


E|--------------|-----------------|----------------------|------|---------------------| 
B|--------------|-----------------|----------------------|------|---------------------| 
G|--------------|-----------------|----0--2-----2--(2)---|------|---------------------| 
D|-2------------|-5--7--4--5------|-5--------2-----(2)---|-3----|-(3)-----------------| 
A|-2------------|-7--9--5--7------|-3--------0-----(0)---|-3----|-(3)------8--7--5----| 
E|-0------------|-----------------|--------------------3-|-1----|-(1)-----------------| 


Intro Riff 

E||------------------------|-------------------------| 
B||------------------------|-------------------------| 
G||------------------------|-------------------------| 
D||--9--9-------9--9-------|-7--7--------------------| 
A||--7--7-------7--7-------|-5--5-------7-----8p7p5--| 
E||-------0-0-0------0-0-0-|------0-0-0---0-0--------| 


E|-----------------------|-------------------------|| 
B|-----------------------|-------------------------|| 
G|-----------------------|-------------------------|| 
D|-9--9-------9--9-------|-------------------------|| x2 
A|-7--7-------7--7-------|-8--8--------------------|| 
E|------0-0-0------0-0-0-|-6--6-6-6-6-5-5-5-3-3-3--|| 


Fill D 

E|-12-----12-----12-----12~~~~~---12----|---------------------| 
B|-15b17--15b17--15b17--15b17~~------15-|-15--15--(15)~~~~----| 
G|--------------------------------------|---------------------| 
D|--------------------------------------|---------------------| 
A|--------------------------------------|---------------------| 
E|--------------------------------------|---------------------| 


E|-------------0-----|-----------------------| 
B|----------------0--|-----------------------| 
G|----------0--------|-3~~~---3p2p0-2p0------| 
D|-------2-----------|------------------2----| 
A|----2--------------|-----------------------| 
E|-0-----------------|-----------------------| 


Bridge 

E||------------------------|------------------------|| 
B||------------------------|------------------------|| 
G||------------------------|------------------------|| 
D||--4--4-------4--4-------|-4--4-------1-1-1-------|| x3 
A||--2--2-2-2-2-2--2-2-2-2-|-2--2-2-2-2-------3-3-3-|| 
E||------------------------|------------------------|| 


E|-----------------------|-----------------------| 
B|-----------------------|-----------------------| 
G|-----------------------|-----------------------| 
D|-4--4-------5--5-------|-7--7-------9--9-------| 
A|-2--2-2-2-2-3--3-3-3-3-|-5--5-5-5-5-6--6-6-6-6-| 
E|-----------------------|-----------------------| 


Harmony 

E|--------------------------|-------------------------| 
B|-15b17------15----(15)-13-|-12--13--15--12--13--12--| 
G|-16b17------16----(16)-14-|-12--14--16--12--14--12--| 
D|--------------------------|-------------------------| 
A|--------------------------|-------------------------| 
E|--------------------------|-------------------------| 


E|---------------------|----------| 
B|---------------------|----------| 
G|-16------14----16p14p|=12~~~----| 
D|-17------16----17-16-|-14~~~----| 
A|---------------------|----------| 
E|---------------------|----------| 


E|--------------------------|-------------------------| 
B|-15b17------15----(15)-13-|-12--13--15--15--17--19--| 
G|-16b17------16---------14-|-12--14--16--16--16--19--| 
D|--------------------------|-------------------------| 
A|--------------------------|-------------------------| 
E|--------------------------|-------------------------| 


E|-----------------|---------------|-------------| 
B|---------16------|-19------------|-(19)~~~-----| 
G|-16------16------|-20------------|-(20)~~~-----| 
D|-17--------------|---------------|-------------| 
A|-----------------|---------------|-------------| 
E|-----------------|---------------|-------------| 


Riff under Solo 

E|-----------------------|-----------------------|-----------------------|----------------------| 
B|-----------------------|-----------------------|-----------------------|----------------------| 
G|-----------------------|-----------------------|-----------------------|----------------------| 
D|-----------------------|-----------------------|-----------------------|----------------------| 
A|-------------------5---|-------------------3---|-------------------5---|-------------3--2--5--| 
E|-0-0-0-0-0-0-0-0-0-3---|-0-0-0-0-0-0-0-0-0-1---|-0-0-0-0-0-0-0-0-0-3---|-0-0-0-0-0-0-1--0--3--| 


Solo 

E|-----------------------|------------------------------10--|-------------------------------| 
B|-----------------------|------------12--10b12r10-(10)-----|-12----------------------------| 
G|-----------------------|-9--11--12------------------------|-----12--11b12r11-(11)-9~~~----| 
D|---------------9-10-12-|----------------------------------|-------------------------------| 
A|-------9-10-12---------|----------------------------------|-------------------------------| 
E|-----------------------|----------------------------------|-------------------------------| 


E|-12h14p12----12-14-15-14h15p14----14-15-17-|-19----19pb20r19p17-19~~~-| 
B|----------15-------------------17----------|--------------------------| 
G|-------------------------------------------|--------------------------| 
D|-------------------------------------------|--------------------------| 
A|-------------------------------------------|--------------------------| 
E|-------------------------------------------|--------------------------| 


E|-------10----------------------------|----------------------------------| 
B|-12-10----12-10----------------------|----------------------------------| 
G|----------------12-14-12-11-12-11----|----------------------------------| 
D|----------------------------------14-|----------------------------14\---| 
A|-------------------------------------|----------------12----12-14-14\---| 
E|-------------------------------------|-12-14-15-14-15----15-------------| 


E|-19-15----------15-17-15----------15-|-17-15-14-14h15p14----------| 
B|-------17----17----------17----17----|-------------------15-17----| 
G|----------16----------------16-------|----------------------------| 
D|-------------------------------------|----------------------------| 
A|-------------------------------------|----------------------------| 
E|-------------------------------------|----------------------------| 


Pre-Chorus 

E|-----------------------|-----------------------| 
B|-----------------------|-----------------------| 
G|-----------------------|-----------------------| 
D|-----------------------|-5--5-------5--5-------| 
A|-2--2-------2--2-------|-3--3-3-3-3-3--3-3-3-3-| 
E|-0--0-0-0-0-0--0-0-0-0-|-----------------------| 


E|-----------------------|-----------------------| 
B|-----------------------|-----------------------| 
G|-----------------------|-----------------------| 
D|-----------------------|-2--2-------4--4-------| 
A|-5--5-------5--5-------|-0--0-0-0-0-2--2-2-2-2-| 
E|-3--3-3-3-3-3--3-3-3-3-|-----------------------| 


E|-----------------------|-----------------------| 
B|-----------------------|-----------------------| 
G|-----------------------|-----------------------| 
D|-5--5-------5--5-------|-----------------------| 
A|-3--3-3-3-3-3--3-3-3-3-|-5--5-------5--5-------| 
E|-----------------------|-3--3-3-3-3-3--3-3-3-3-| 


E|-----------------------|-----------------------| 
B|-----------------------|-----------------------| 
G|-----------------------|-----------------------| 
D|-7--7-------7--7-------|-9--9-------9--9-------| 
A|-5--5-5-5-5-5--5-5-5-5-|-6--6-6-6-6-6--6-6-6-6-| 
E|-----------------------|-----------------------| 


Chorus 

E|--------------|-----------------|----------------------|--------0----| 
B|--------------|-----------------|----------------------|--------0----| 
G|--------------|-----------------|----0--2-----2--(2)---|-------------| 
D|-2------------|-5--7--4--5------|-5--------2-----(2)---|-2-----------| 
A|-2------------|-7--9--5--7------|-3--------0-----(0)---|-2-----------| 
E|-0------------|-----------------|--------------------3-|-0-----------| 


E|--------------|-----------------|----------------------|------|---------------------| 
B|--------------|-----------------|----------------------|------|---------------------| 
G|--------------|-----------------|----0--2-----2--(2)---|------|---------------------| 
D|-2------------|-5--7--4--5------|-5--------2-----(2)---|-3----|-(3)-----------------| 
A|-2------------|-7--9--5--7------|-3--------0-----(0)---|-3----|-(3)------8--7--5----| 
E|-0------------|-----------------|--------------------3-|-1----|-(1)-----------------| 


Outro Riff 

E||------------------------|-------------------------| 
B||------------------------|-------------------------| 
G||------------------------|-------------------------| 
D||--9--9-------9--9-------|-7--7--------------------| 
A||--7--7-------7--7-------|-5--5-------7-----8p7p5--| 
E||-------0-0-0------0-0-0-|------0-0-0---0-0--------| 


E|-----------------------|-------------------------|| 
B|-----------------------|-------------------------|| 
G|-----------------------|-------------------------|| 
D|-9--9-------9--9-------|-------------------------|| x2 
A|-7--7-------7--7-------|-8--8--------------------|| 
E|------0-0-0------0-0-0-|-6--6-6-6-6-5-5-5-3-3-3--|| 


Fill E 

E|------------------|-----------------------------------| 
B|-15---------------|-15--(15)--(15)--(15)------| 
G|-14b16------------|-----------------------------------| 
D|------------------|-----------------------------------| 
A|------------------|-----------------------------------| 
E|------------------|-----------------------------------| 


E|---------------------------------------|--------| 
B|-/12h15p12h15p12h15-/12h15p12h15p12h15-|-12\----| 
G|---------------------------------------|--------| 
D|---------------------------------------|--------| 
A|---------------------------------------|--------| 
E|---------------------------------------|--------|  
    	
fixar
fixar inscrever-se

enviado porenviado por: marcnagel
cifra enviadaCorrigida por: sem correções
logo top cifrasComente
ico música do artistaMúsicas deste artista
ico curtiuCurtiu?
ico destaqueDestaque
Petaxxon Comunicação Online

Cifras.com.br - Melhor e mais completo site de cifras e tablaturas do Brasil Mais de 1 milhão de acordes de músicas cadastradas desde 2003
As informações contidas no nosso site são colaborações de seus usuários e podem conter erros, sendo assim, não nos responsabilizamos sobre nenhuma destas.

close
menos
mais
close
Cor dos acordes:

Cor da letra:

close
Alinhar acordes a direita Alinhar acordes a esquerda Alinhar acordes em baixo Alinhar acordes no topo
close
  Mostrar todos os acordes Esconder acordes muito fáceis Esconder acordes fáceis Esconder acordes intermediários
redimensionar
glossário