Cifras e Tablaturas
Cifras Cancelar Versão de Impressão
cifras

Julien Baker - Even

fixar na tela  
Exibindo: vídeo-aula ver clipes redimensionar

Tom:

C#

ver outros tons
  
verse 1 
D#|----------------------------|----------------------------| 
A#|----------------------------|----------------------------| 
F#|----------------------------|----------------------------| 
C#|--------0--0--------0--0----|--------0--0--------0--0----| 
G#|--9--9--9--9--9--9--9--9----|--9--9--9--9--9--9--9--9----| 
C#|--9--9--9--9--9--9--9--9----|--0--0--0--0--0--0--0--0----| 

D#|----------------------------|----------------------------| 
A#|----------------------------|----------------------------| 
F#|----------------------------|----------------------------| 
C#|--------0--0--------0--0----|--------0--0--------0--0----| 
G#|--9--9--9--9--9--9--9--9----|--9--9--9--9--9--9--9--9----| 
C#|--9--9--9--9--9--9--9--9----|--0--0--0--0--0--0--0--0----| 

                 When is it too many times 
D#|----------------------------|----------------------------| 
A#|----------------------------|----------------------------| 
F#|----------------------------|----------------------------| 
C#|--------0--0--------0--0----|--------0--0--------0--0----| 
G#|--9--9--9--9--9--9--9--9----|--9--9--9--9--9--9--9--9----| 
C#|--9--9--9--9--9--9--9--9----|--0--0--0--0--0--0--0--0----| 

     To tell you that I think of you every night 
D#|----------------------------|----------------------------| 
A#|----------------------------|----------------------------| 
F#|----------------------------|----------------------------| 
C#|--------0--0--------0--0----|--------0--0--------0--0----| 
G#|--9--9--9--9--9--9--9--9----|--9--9--9--9--9--9--9--9----| 
C#|--9--9--9--9--9--9--9--9----|--0--0--0--0--0--0--0--0----| 

     I don't want to make it      hard on you 
D#|----------------------------|----------------------------| 
A#|----------------------------|----------------------------| 
F#|----------------------------|----------------------------| 
C#|--------0--0--------0--0----|--0-----0-----------0-------| 
G#|--5--5--5--5--5--5--5--5----|--2-----2--2--2--2--2--2----| 
C#|--5--5--5--5--5--5--5--5----|--2-----2--2--2--2--2--2----| 

                 So I could be   cruel 
D#|----------------------------|----------------------------| 
A#|----------------------------|----------------------------| 
F#|----------------------------|----------------------------| 
C#|--------0--0--------0--0----|--------0--0--------0--0----| 
G#|--9--9--9--9--9--9--9--9----|--9--9--9--9--9--9--9--9----| 
C#|--9--9--9--9--9--9--9--9----|--0--0--0--0--0--0--0--0----| 

                 Yeah I could     make you hate me 
D#|----------------------------|----------------------------| 
A#|----------------------------|----------------------------| 
F#|----------------------------|----------------------------| 
C#|--------0--0--------0--0----|--------0--0--------0--0----| 
G#|--9--9--9--9--9--9--9--9----|--9--9--9--9--9--9--9--9----| 
C#|--9--9--9--9--9--9--9--9----|--0--0--0--0--0--0--0--0----| 

                 Would that make it easy 
D#|----------------------------|----------------------------| 
A#|----------------------------|----------------------------| 
F#|----------------------------|----------------------------| 
C#|--------0--0--------0--0----|--------0--0--------0--0----| 
G#|--5--5--5--5--5--5--5--5----|--2--2--2--2--2--2--2--2----| 
C#|--5--5--5--5--5--5--5--5----|--2--2--2--2--2--2--2--2----| 

verse 2 
D#|----------------------------|----------------------------| 
A#|----------------------------|----------------------------| 
F#|----------------------------|----------------------------| 
C#|--------0--0--------0--0----|--------0--0--------0--0----| 
G#|--9--9--9--9--9--9--9--9----|--9--9--9--9--9--9--9--9----| 
C#|--9--9--9--9--9--9--9--9----|--0--0--0--0--0--0--0--0----| 

                 Did you think I forgot 
D#|----------------------------|----------------------------| 
A#|----------------------------|----------------------------| 
F#|----------------------------|----------------------------| 
C#|--------0--0--------0--0----|--------0--0--------0--0----| 
G#|--9--9--9--9--9--9--9--9----|--9--9--9--9--9--9--9--9----| 
C#|--9--9--9--9--9--9--9--9----|--0--0--0--0--0--0--0--0----| 

                 The   fire  -   works, the black eye 
D#|----------------------------|----------------------------| 
A#|----------------------------|----------------------------| 
F#|----------------------------|----------------------------| 
C#|--------0--0--------0--0----|--------0--0--------0--0----| 
G#|--9--9--9--9--9--9--9--9----|--9--9--9--9--9--9--9--9----| 
C#|--9--9--9--9--9--9--9--9----|--0--0--0--0--0--0--0--0----| 

             Trading blows on the fourth of July 
D#|----------------------------|----------------------------| 
A#|----------------------------|----------------------------| 
F#|----------------------------|----------------------------| 
C#|--------0--0--------0--0----|--------0--0--------0--0----| 
G#|--5--5--5--5--5--5--5--5----|--2--2--2--2--2--2--2--2----| 
C#|--5--5--5--5--5--5--5--5----|--2--2--2--2--2--2--2--2----| 

       But you were right, I was asking for it 
D#|----------------------------|----------------------------| 
A#|----------------------------|----------------------------| 
F#|----------------------------|----------------------------| 
C#|--------0--0--------0--0----|--0-------------------------| 
G#|--5--5--5--5--5--5--5--5----|--2-------------------------| 
C#|--5--5--5--5--5--5--5--5----|--2-------------------------| 

                 I always         am 
D#|----------------------------|----------------------------| 
A#|----------------------------|----------------------------| 
F#|----------------------------|----------------------------| 
C#|--------0--0--------0--0----|--------0--0--------0--0----| 
G#|--9--9--9--9--9--9--9--9----|--9--9--9--9--9--9--9--9----| 
C#|--9--9--9--9--9--9--9--9----|--0--0--0--0--0--0--0--0----| 

It's no good if the pain doesn't make you feel like you earned it 
D#|----------------------------|----------------------------| 
A#|----------------------------|----------------------------| 
F#|----------------------------|----------------------------| 
C#|--------0--0--------0--0----|--------0-----0-----0-------| 
G#|--9--9--9--9--9--9--9--9----|--9--9--9--9--9--9--9--9----| 
C#|--9--9--9--9--9--9--9--9----|--0--0--0--0--0--0--0--0----| 

                 And I probably deserved it 
D#|----------------------------|----------------------------| 
A#|----------------------------|----------------------------| 
F#|----------------------------|----------------------------| 
C#|--------0--0--------0--0----|--------0--0--------0--0----| 
G#|--5--5--5--5--5--5--5--5----|--2--2--2--2--2--2--2--2----| 
C#|--5--5--5--5--5--5--5--5----|--2--2--2--2--2--2--2--2----| 

Chorus 1 
D#|----------------------------|----------------------------| 
A#|----------------------------|----------------------------| 
F#|--------7--7--------7--7----|--------7--7--------7--7----| 
C#|--------0--0--------0--0----|--------0--0--------0--0----| 
G#|--9--9--9--9--9--9--9--9----|--9--9--9--9--9--9--9--9----| 
C#|--9--9--9--9--9--9--9--9----|--0--0--0--0--0--0--0--0----| 

D#|----------------------------|----------------------------| 
A#|----------------------------|----------------------------| 
F#|--------7--7--------7--7----|--------7--7--------7--7----| 
C#|--------0--0--------0--0----|--------0--0--------0--0----| 
G#|--9--9--9--9--9--9--9--9----|--9--9--9--9--9--9--9--9----| 
C#|--9--9--9--9--9--9--9--9----|--0--0--0--0--0--0--0--0----| 

'Cause all you ever say is       "What's the point?" 
D#|----------------------------|----------------------------| 
A#|----------------------------|----------------------------| 
F#|--------4--4--------4--4----|--------7--7--7--7--7--7----| 
C#|--------0--0--------0--0----|--------0--0--0--0--0--0----| 
G#|--5--5--5--5--5--5--5--5----|--9--9--9--9--9--9--9--9----| 
C#|--5--5--5--5--5--5--5--5----|--9--9--9--9--0--0--0--0----| 

     is anybody there to          help me now? 
D#|----------------------------|----------------------------| 
A#|----------------------------|----------------------------| 
F#|--------4--4--4-----4-------|--------7-----7--7--7--7----| 
C#|--------0--0--0-----0-------|--------0-----0--0--0--0----| 
G#|--5--5--5--5--5--5--5--5----|--9--9--9--9--9--9--9--9----| 
C#|--5--5--5--5--5--5--5--5----|--9--9--9--9--0--0--0--0----| 

     It's not that I think I'm   good        I know that I'm 
D#|----------------------------|----------------------------| 
A#|----------------------------|----------------------------| 
F#|--------4--4--------4--4----|--------7--7--------7--7----| 
C#|--------0--0--------0--0----|--------0--0--------0--0----| 
G#|--5--5--5--5--5--5--5--5----|--9--9--9--9--9--9--9--9----| 
C#|--5--5--5--5--5--5--5--5----|--9--9--9--9--0--0--0--0----| 

     evil, I guess I was          trying to even it out 
D#|----------------------------|----------------------------| 
A#|----------------------------|----------------------------| 
F#|--------4--4--------4--4----|--4-------------------------| 
C#|--------0--0--------0--0----|--0-------------------------| 
G#|--5--5--5--5--5--5--5--5----|--5-------------------------| 
C#|--5--5--5--5--5--5--5--5----|--5-------------------------| 


verse 3 
D#|----------------------------|----------------------------| 
A#|----------------------------|----------------------------| 
F#|----------------------------|----------------------------| 
C#|--------0--0--------0--0----|--------0--0--------0--0----| 
G#|--9--9--9--9--9--9--9--9----|--9--9--9--9--9--9--9--9----| 
C#|--9--9--9--9--9--9--9--9----|--0--0--0--0--0--0--0--0----| 

D#|----------------------------|----------------------------| 
A#|----------------------------|----------------------------| 
F#|----------------------------|----------------------------| 
C#|--------0--0--------0--0----|--------0--0--------0--0----| 
G#|--9--9--9--9--9--9--9--9----|--9--9--9--9--9--9--9--9----| 
C#|--9--9--9--9--9--9--9--9----|--0--0--0--0--0--0--0--0----| 

              Isn't that what you want 
D#|----------------------------|----------------------------| 
A#|----------------------------|----------------------------| 
F#|----------------------------|----------------------------| 
C#|--------0--0--------0--0----|--------0-----0-----0-------| 
G#|--9--9--9--9--9--9--9--9----|--9--9--9--9--9--9--9--9----| 
C#|--9--9--9--9--9--9--9--9----|--0--0--0--0--0--0--0--0----| 

                 For me to be     miserable like you 
D#|----------------------------|----------------------------| 
A#|----------------------------|----------------------------| 
F#|----------------------------|----------------------------| 
C#|--------0--0--------0--0----|--0--0--0--0-----0--0--0----| 
G#|--9--9--9--9--9--9--9--9----|--9--9--9--9--9--9--9--9----| 
C#|--9--9--9--9--9--9--9--9----|--0--0--0--0--0--0--0--0----| 

     Well brother, you're         about to get your wish 
D#|----------------------------|----------------------------| 
A#|----------------------------|----------------------------| 
F#|----------------------------|----------------------------| 
C#|--------0--0--------0--0----|--0-------------------------| 
G#|--5--5--5--5--5--5--5--5----|--2-------------------------| 
C#|--5--5--5--5--5--5--5--5----|--2-------------------------| 

Bridge 
                 Putting my       fist  
D#|----------------------------|----------------------------| 
A#|----------------------------|----------------------------| 
F#|----------------------------|----------------------------| 
C#|--------0--0--------0--0----|--------0--0-----0--0--0----| 
G#|--9--9--9--9--9--9--9--9----|--9--9--9--9--9--9--9--9----| 
C#|--9--9--9--9--9--9--9--9----|--0--0--0--0--0--0--0--0----| 

through the plaster in the bathroom of a Motel 6 
D#|----------------------------|----------------------------| 
A#|----------------------------|----------------------------| 
F#|----------------------------|----------------------------| 
C#|--------0--0--------0--0----|--------0--0--------0--0----| 
G#|--9--9--9--9--9--9--9--9----|--9--9--9--9--9--9--9--9----| 
C#|--9--9--9--9--9--9--9--9----|--0--0--0--0--0--0--0--0----| 

    I must have pictured it      all a       thousand times 
D#|----------------------------|----------------------------| 
A#|----------------------------|----------------------------| 
F#|--------4--4--------4--4----|--------4--4----------------| 
C#|--------0--0--------0--0----|--------0--0--------0--0----| 
G#|--5--5--5--5--5--5--5--5----|--5--5--5--5--2--2--2--2----| 
C#|--5--5--5--5--5--5--5--5----|--0--0--0--0--2--2--2--2----| 

     I swear to God I             think I'm  gonna die 
D#|----------------------------|----------------------------| 
A#|----------------------------|----------------------------| 
F#|--------4--4--------4--4----|--------4--4----------------| 
C#|--------0--0--------0--0----|--------0--0--------0--0----| 
G#|--5--5--5--5--5--5--5--5----|--5--5--5--5--2--2--2--2----| 
C#|--5--5--5--5--5--5--5--5----|--0--0--0--0--2--2--2--2----| 

                 I know you were right, I     can't be fixed 
D#|----------------------------|----------------------------| 
A#|----------------------------|----------------------------| 
F#|----------------------------|--------4--4----------------| 
C#|--------0--0--------0--0----|--------0--0--------0--0----| 
G#|--5--5--5--5--5--5--5--5----|--5--5--5--5--2--2--2--2----| 
C#|--5--5--5--5--5--5--5--5----|--0--0--0--0--2--2--2--2----| 

                So help me 
D#|----------------------------|----------------------------| 
A#|----------------------------|----------------------------| 
F#|----------------------------|----------------------------| 
C#|--------0--0--------0--0----|--------0--0----------------| 
G#|--5--5--5--5--5--5--5--5----|--5--5--5--5--5--5--5-------| 
C#|--5--5--5--5--5--5--5--5----|--5--5--5--5--5--5--5-------| 

Chorus 2 
D#|----------------------------|----------------------------| 
A#|----------------------------|----------------------------| 
F#|----------------------------|----------------------------| 
C#|--------0--0--------0--0----|--------0--0--------0--0----| 
G#|--9--9--9--9--9--9--9--9----|--9--9--9--9--9--9--9--9----| 
C#|--9--9--9--9--9--9--9--9----|--0--0--0--0--0--0--0--0----| 

D#|----------------------------|----------------------------| 
A#|----------------------------|----------------------------| 
F#|----------------------------|----------------------------| 
C#|--------0--0--0--0--0--0----|--------0--0-----0--0--0----| 
G#|--9--9--9--9--9--9--9--9----|--9--9--9--9--9--9--9--9----| 
C#|--9--9--9--9--9--9--9--9----|--0--0--0--0--0--0--0--0----| 

     'Cause all you ever say is   "What's the point?" 
D#|----------------------------|----------------------------| 
A#|----------------------------|----------------------------| 
F#|--------4--4--------4--4----|--------7--7--------7--7----| 
C#|--------0--0--------0--0----|--------0--0--------0--0----| 
G#|--5--5--5--5--5--5--5--5----|--9--9--9--9--9--9--9--9----| 
C#|--5--5--5--5--5--5--5--5----|--9--9--9--9--0--0--0--0----| 

     Is anybody there to          help me     now? 
D#|----------------------------|----------------------------| 
A#|----------------------------|----------------------------| 
F#|--------4--4--------4--4----|--------7--7--------7--7----| 
C#|--------0--0--------0--0----|--------0--0--------0--0----| 
G#|--5--5--5--5--5--5--5--5----|--9--9--9--9--9--9--9--9----| 
C#|--5--5--5--5--5--5--5--5----|--9--9--9--9--0--0--0--0----| 

     It's not that I think I'm good,          I know that I'm 
D#|----------------------------|----------------------------| 
A#|----------------------------|----------------------------| 
F#|--------4--4--------4--4----|--------7--7--------7--7----| 
C#|--------0--0--------0--0----|--------0--0--------0--0----| 
G#|--5--5--5--5--5--5--5--5----|--9--9--9--9--9--9--9--9----| 
C#|--5--5--5--5--5--5--5--5----|--9--9--9--9--0--0--0--0----| 

     evil, I guess I was          trying to even it out 
D#|----------------------------|----------------------------| 
A#|----------------------------|----------------------------| 
F#|--------4--4--------4--4----|--4-------------------------| 
C#|--------0--0--------0--0----|--0-------------------------| 
G#|--5--5--5--5--5--5--5--5----|--5-------------------------| 
C#|--5--5--5--5--5--5--5--5----|--5-------------------------| 
  

top 5 | julien baker
top rock'n roll
Outras músicas do artista letras do(a) Julien Baker
5.
Even
Top cifras »Top artistas »
Petaxxon Comunicação Online
Cifras.com.br - Melhor e mais completo site de cifras e tablaturas do Brasil
Mais de 1 milhão de acordes de músicas cadastradas desde 2003
As informações contidas no nosso site são colaborações de seus usuários e podem conter erros, sendo assim, não nos responsabilizamos sobre nenhuma destas.
close
menos
mais
close
Cor dos acordes:

Cor da letra:

 

save
close
close
 
redimensionar