Cifras e Tablaturas
Julien Baker

Julien Baker

Photobooth

Cifras Cancelar Versão de Impressão
cifras

Julien Baker - Photobooth

fixar na tela  
Exibindo: vídeo-aula ver clipes redimensionar

Tom:

  
Intro 

    1 e + a 2 e + a 3 e + a 4 e + a     1 e + a 2 e + a 3 e + a 4 e + a 
e|------------0----------------------|------------0------------------------| 
B|--------3---------3---------3------|--------3---------3---------3--------| 
G|----2-----------2-----2---2-----2--|------0---------0-----0---0-----0----| 
D|--0---0---0-------0-----0-----0----|----------0-------------0-----0------| 
A|-----------------------------------|--0h2-------------2------------------| 
E|-----------------------------------|-------------------------------------| 


    1 e + a 2 e + a 3 e + a 4 e + a    1 e + a 2 e + a 3 e + a 4 e + a 
e|------------0---------------------|------------0-----0h2--------------| 
B|--------3---------------3---------|--------3-------------------3------| 
G|------0---------0-----0-----------|------0---------0-------0-------0--| 
D|--0h2-----2---2---2h4-----4p2p0---|----------0-----------0---0---0----| 
A|----------------------------------|-----------------------------------| 
E|----------------------------------|--0h3------------------------------| 

    1 e + a 2 e + a 3 e + a 4 e + a     1 e + a 2 e + a 3 e + a 4 e + a 
e|------------0----------------------|------------0----------------------| 
B|--3-----3---------3---------3------|--------3---------3---------3------| 
G|----2-----------2-----2---2-----2--|------0---------0-----0---0-----0--| 
D|--0---0-----------0-----0-----0----|------------------------0-----0----| 
A|-----------------------------------|--0h2-------------2----------------| 
E|-----------------------------------|-----------------------------------| 

    1 e + a 2 e + a 3 e + a 4 e + a     1 e + a 2 e + a 3 e + a 4 e + a 
e|------------0----------------------|------------0-----0h2--------------------| 
B|--------3---------3---------3------|--------3--------------------------------| 
G|----0-----------0-----0---0-----0--|------0---------0------------------------| 
D|------2-----------------2-----2----|-----------------------------------------| 
A|--0---------------0----------------|-----------------------------------------| 
E|-----------------------------------|--0h3------------------------------------| 


Verse  x4 

    1 e + a 2 e + a 3 e + a 4 e + a     1 e + a 2 e + a 3 e + a 4 e + a 
e|------------0---------------0------|------------0---------------0------| 
B|--3---------------3----------------|--3---------------3----------------| 
G|------2---2-----2-----2---2-----2--|------0---0-----0-----0---0-----0--| 
D|--0-----0-----0---0-----0-----0----|--------0-----0---------0-----0----| 
A|-----------------------------------|--0h2-------------2----------------| 
E|-----------------------------------|-----------------------------------| 
    1 e + a 2 e + a 3 e + a 4 e + a     1 e + a 2 e + a 3 e + a 4 e + a 
e|------------0---------------0------|------------0-----2-----------------| 
B|--3---------------3----------------|--------3---------------------------| 
G|------0---0-----0-----0---0-----0--|------0---------0-------------------| 
D|--------2-----0---------2-----2----|------------------------------------| 
A|--0---------------0----------------|------------------------------------| 
E|-----------------------------------|--0h3-------------------------------| 


Chorus 

   1 e + a 2 e + a 3 e + a 4 e + a     1 e + a 2 e + a 3 e + a 4 e + a 
e|-----------------0----------------|------------------0----------------| 
B|-------3---------------3----------|--------3--------------------------| 
G|-----------0---------------0------|-----------------------------------| 
D|----------------------------------|------------0----------------------| 
A|----------------------------------|-----------------------------------| 
E|--0-------------------------------|--3--------------------------------| 

    1 e + a 2 e + a 3 e + a 4 e + a      1 e + a 2 e + a 3 e + a 4 e + a 
e|------------------------------------|------------------0-----------------| 
B|--7---------7-----5---------5-------|--3---------------------3-----------| 
G|--------0-------0-------0-------0---|--------0-------------------0-------| 
D|------7---7---7-------5---5---5-----|------------4-----------------------| 
A|------------------0-----------------|------------------------------------| 
E|--7---------------------------------|--3---------------------------------| 

   1 e + a 2 e + a 3 e + a 4 e + a     1 e + a 2 e + a 3 e + a 4 e + a 
e|-----------------0----------------|----------0-------------------------| 
B|-------3---------------3----------|------------------------------------| 
G|-----------0---------------0------|------------------0-----------------| 
D|----------------------------------|------------------------------------| 
A|----------------------------------|------------------------------------| 
E|--0-------------------------------|--3---------------------------------| 


Bridge  x3 

    1  +  2  +  3  +  4  +     1  +  2  +  3  +  4  + 
e|--------------------------|--------------------------| 
B|--3-----------7-----------|--8-----------12----------| 
G|--------------------------|--------------------------| 
D|--------------------------|--------------------------| 
A|--2-----------5-----------|--7-----------10----------| 
E|--------------------------|--------------------------| 


1st half of intro 

    1 e + a 2 e + a 3 e + a 4 e + a     1 e + a 2 e + a 3 e + a 4 e + a 
e|------------0----------------------|------------0------------------------| 
B|--------3---------3---------3------|--------3---------3---------3--------| 
G|----2-----------2-----2---2-----2--|------0---------0-----0---0-----0----| 
D|--0---0---0-------0-----0-----0----|----------0-------------0-----0------| 
A|-----------------------------------|--0h2-------------2------------------| 
E|-----------------------------------|-------------------------------------| 


    1 e + a 2 e + a 3 e + a 4 e + a    1 e + a 2 e + a 3 e + a 4 e + a 
e|------------0---------------------|------------0-----0h2--------------| 
B|--------3---------------3---------|--------3-------------------3------| 
G|------0---------0-----0-----------|------0---------0-------0-------0--| 
D|--0h2-----2---2---2h4-----4p2p0---|----------0-----------0---0---0----| 
A|----------------------------------|-----------------------------------| 
E|----------------------------------|--0h3------------------------------| 


verse 2  x4 

    1 e + a 2 e + a 3 e + a 4 e + a     1 e + a 2 e + a 3 e + a 4 e + a 
e|------------0---------------0------|------------0---------------0------| 
B|--3---------------3----------------|--3---------------3----------------| 
G|------2---2-----2-----2---2-----2--|------0---0-----0-----0---0-----0--| 
D|--0-----0-----0---0-----0-----0----|--------0-----0---------0-----0----| 
A|-----------------------------------|--0h2-------------2----------------| 
E|-----------------------------------|-----------------------------------| 
    1 e + a 2 e + a 3 e + a 4 e + a     1 e + a 2 e + a 3 e + a 4 e + a 
e|------------0---------------0------|------------0-----2-----------------| 
B|--3---------------3----------------|--------3---------------------------| 
G|------0---0-----0-----0---0-----0--|------0---------0-------------------| 
D|--------2-----0---------2-----2----|------------------------------------| 
A|--0---------------0----------------|------------------------------------| 
E|-----------------------------------|--0h3-------------------------------| 


Chorus 2 

   1 e + a 2 e + a 3 e + a 4 e + a     1 e + a 2 e + a 3 e + a 4 e + a 
e|-----------------0----------------|------------------0----------------| 
B|-------3---------------3----------|--------3--------------------------| 
G|-----------0---------------0------|-----------------------------------| 
D|----------------------------------|------------0----------------------| 
A|----------------------------------|-----------------------------------| 
E|--0-------------------------------|--3--------------------------------| 

    1 e + a 2 e + a 3 e + a 4 e + a      1 e + a 2 e + a 3 e + a 4 e + a 
e|------------------------------------|------------------0-----------------| 
B|--7---------7-----5---------5-------|--3---------------------3-----------| 
G|--------0-------0-------0-------0---|--------0-------------------0-------| 
D|------7---7---7-------5---5---5-----|------------4-----------------------| 
A|------------------0-----------------|------------------------------------| 
E|--7---------------------------------|--3---------------------------------| 

   1 e + a 2 e + a 3 e + a 4 e + a     1 e + a 2 e + a 3 e + a 4 e + a 
e|-----------------0----------------|----------0-------------------------| 
B|-------3---------------3----------|------------------------------------| 
G|-----------0---------------0------|------------------0-----------------| 
D|----------------------------------|------------------------------------| 
A|----------------------------------|------------------------------------| 
E|--0-------------------------------|--3---------------------------------| 


Bridge 2  x3 

    1  +  2  +  3  +  4  +     1  +  2  +  3  +  4  + 
e|--------------------------|--------------------------| 
B|--3-----------7-----------|--8-----------12----------| 
G|--------------------------|--------------------------| 
D|--------------------------|--------------------------| 
A|--2-----------5-----------|--7-----------10----------| 
E|--------------------------|--------------------------| 


Bridge 2 
(ending) 

    1 e + a 2 e + a 3 e + a 4 e + a    1 e + a 2 e + a 3 e + a 4 e + a 
e|----------------------------------|-----------------------------------| 
B|--3---------3-----7---------7-----|--8---------8-----12--------12-----| 
G|--------0---------------0---------|--------0---------------0----------| 
D|------0---0-----------0---0-------|------0---0-----------0---0--------| 
A|--2---------------5---------------|--7---------------10---------------| 
E|----------------------------------|-----------------------------------| 


Chorus 3  x3 

   1 e + a 2 e + a 3 e + a 4 e + a     1 e + a 2 e + a 3 e + a 4 e + a 
e|-----------------0----------------|------------------0----------------| 
B|-------3---------------3----------|--------3--------------------------| 
G|-----------0---------------0------|-----------------------------------| 
D|----------------------------------|------------0----------------------| 
A|----------------------------------|-----------------------------------| 
E|--0-------------------------------|--3--------------------------------| 

    1 e + a 2 e + a 3 e + a 4 e + a      1 e + a 2 e + a 3 e + a 4 e + a 
e|------------------------------------|------------------0-----------------| 
B|--7---------7-----5---------5-------|--3---------------------3-----------| 
G|--------0-------0-------0-------0---|--------0-------------------0-------| 
D|------7---7---7-------5---5---5-----|------------4-----------------------| 
A|------------------0-----------------|------------------------------------| 
E|--7---------------------------------|--3---------------------------------| 

THEN PLAY 

   1 e + a 2 e + a 3 e + a 4 e + a     1 e + a 2 e + a 3 e + a 4 e + a 
e|-----------------0----------------|----------0-------------------------| 
B|-------3---------------3----------|------------------------------------| 
G|-----------0---------------0------|------------------0-----------------| 
D|----------------------------------|------------------------------------| 
A|----------------------------------|------------------------------------| 
E|--0-------------------------------|--3---------------------------------| 


Bridge 3  x4 

    1  +  2  +  3  +  4  +     1  +  2  +  3  +  4  + 
e|--------------------------|--------------------------| 
B|--3-----------7-----------|--8-----------12----------| 
G|--------------------------|--------------------------| 
D|--------------------------|--------------------------| 
A|--2-----------5-----------|--7-----------10----------| 
E|--------------------------|--------------------------| 
  

top 5 | julien baker
top rock'n roll
Outras músicas do artista letras do(a) Julien Baker
Top cifras »Top artistas »
Petaxxon Comunicação Online
Cifras.com.br - Melhor e mais completo site de cifras e tablaturas do Brasil
Mais de 1 milhão de acordes de músicas cadastradas desde 2003
As informações contidas no nosso site são colaborações de seus usuários e podem conter erros, sendo assim, não nos responsabilizamos sobre nenhuma destas.
close
menos
mais
close
Cor dos acordes:

Cor da letra:

 

save
close
close
 
redimensionar