Cifras e Tablaturas
Kakkmaddafakka

Kakkmaddafakka

Heidelberg

Cifras Cancelar Versão de Impressão

Kakkmaddafakka - Heidelberg

Tom:

  			Intro 

e|----------------------------------------------x-x-x-x-x-x-x-x--------------| 
B|----------------------------------------------x-x-x-x-x-x-x-x--------------| 
G|----------------------------------------------x-x-x-x-x-x-x-x--------------| 4x 
D|----------------------------------------------x-x-x-x-x-x-x-x--------------| 
A|-2--2--2>-3-2------------3>--2--2--2>-3-2-----x-x-x-x-x-x-x-x--------------| 
E|--------------3-0--0--0-------------------3-0-x-x-x-x-x-x-x-x--------------| 

e|---------------------------------------------------------------------------| 
B|---------------------------------------------------------------------------| 
G|---------------------------------------------------------------------------| 2x 
D|-----------0-2-2-4-5-4-2-0-----------0--2--4--5--4-------------------------| 
A|-2--2--2>------------------2--2--2>----------------------------------------| 
E|---------------------------------------------------------------------------| 
 
    	
fixar
fixar inscrever-se

enviado porenviado por: ang-letra
cifra enviadaCorrigida por: sem correções
logo top cifrasComente
ico música do artistaMúsicas deste artista
ico curtiuCurtiu?
ico destaqueDestaque
Petaxxon Comunicação Online

Cifras.com.br - Melhor e mais completo site de cifras e tablaturas do Brasil Mais de 1 milhão de acordes de músicas cadastradas desde 2003
As informações contidas no nosso site são colaborações de seus usuários e podem conter erros, sendo assim, não nos responsabilizamos sobre nenhuma destas.

close
menos
mais
close
Cor dos acordes:

Cor da letra:

close
Alinhar acordes a direita Alinhar acordes a esquerda Alinhar acordes em baixo Alinhar acordes no topo
close
  Mostrar todos os acordes Esconder acordes muito fáceis Esconder acordes fáceis Esconder acordes intermediários
redimensionar
glossário