Cifras e Tablaturas
Kamikazee

Kamikazee

Agimat

Cifras Cancelar Versão de Impressão

Kamikazee - Agimat

Tom: Eb

  			Intro 
Rhythm: 
   Eb                           Bb   C                Bb                 
e|---------------------------------------------------------------------| 
B|---------------------------------------------------------------------| 
G|-8-8-8-8-8-8-8-8-8-8-8-8-8-8--3-3--5-5-5-5-5-5-5-5--3-3-3-3-3-3-3-3--| 
D|-8-8-8-8-8-8-8-8-8-8-8-8-8-8--3-3--5-5-5-5-5-5-5-5--3-3-3-3-3-3-3-3--| x2 
A|-6-6-6-6-6-6-6-6-6-6-6-6-6-6--1-1--3-3-3-3-3-3-3-3--1-1-1-1-1-1-1-1--| 
E|---------------------------------------------------------------------| 

   Ab 
e|------| 
B|------| 
G|------| 
D|-6~---| 
A|-6~---| 
E|-4~---| 

Lead: 
e|------------------------------------------------------------------------------| 
B|------------------------------------------------------------------------------| 
G|-12--10--15-13-12-10-----8---------8-------8h10----8---------8-------8h10-8---| 
D|-x---x---x--x--x--x--8h10-10-8-8h10-10-8h10----8h10-10-8-8h10-10-8h10---------| 
A|-10--8---13-11-10-8-----------------------------------------------------------| 
E|------------------------------------------------------------------------------| 

e|--------------------------------------------| 
B|--------------------------------------------| 
G|-8\7~--7\5~--5\3~--------------------xx-----| 
D|-------------------------------------xx-----| 
A|-------------------------------------xx-----| 
E|--------------------------------------------| 

Verse1 
Rhythm: 
   Eb                         Eb 
e|-------------------------------------------------------| 
B|-------------------------------------------------------| 
G|-8--8-8--7-8--8-7-8--8-8/7--8--8-8--7-8--8-7-8--8-8/7--| 
D|-8--8-8--7-8--8-7-8--8-8/7--8--8-8--7-8--8-7-8--8-8/7--| 
A|-6--6-6--5-6--6-5-6--6-6/5--6--6-6--5-6--6-5-6--6-6/5--| 
E|-------------------------------------------------------| 

   C                                  Bb 
e|---------------------------------------------------------------| 
B|---------------------------------------------------------------| 
G|---------------------------------------------------------------| 
D|-10--10-10-8-10--10-8-10--10-10-10--8--8-8--6-8--8-6-8-8--8-8--| x2 
A|-10--10-10-8-10--10-8-10--10-10-10--8--8-8--6-8--8-6-8-8--8-8--| 
E|-8---8--8--6-8---8--6-8---8--8--8---6--6-6--4-6--6-4-6-6--6-6--| 

   Ab 
e|---------------------------------------| 
B|---------------------------------------| 
G|---------------------------------------| 
D|-6-6-6-6-6-6-6-6-6-6-6-----------------| 
A|-6-6-6-6-6-6-6-6-6-6-6----------1------| 
E|-4-4-4-4-4-4-4-4-4-4-4------1h3---3-1--| 

Chorus 
Rhythm: 
   Eb                           Bb   C                Bb                 
e|---------------------------------------------------------------------| 
B|---------------------------------------------------------------------| 
G|-8-8-8-8-8-8-8-8-8-8-8-8-8-8--3-3--5-5-5-5-5-5-5-5--3-3-3-3-3-3-3-3--| 
D|-8-8-8-8-8-8-8-8-8-8-8-8-8-8--3-3--5-5-5-5-5-5-5-5--3-3-3-3-3-3-3-3--| x2 
A|-6-6-6-6-6-6-6-6-6-6-6-6-6-6--1-1--3-3-3-3-3-3-3-3--1-1-1-1-1-1-1-1--| 
E|---------------------------------------------------------------------| 

   Ab 
e|------| 
B|------| 
G|------| 
D|-6~---| 
A|-6~---| 
E|-4~---| 

Lead: 
e|-------------------------------------------| 
B|-------------------------------------------| 
G|-8-------------10--12-------15---12---xx---| 
D|-x-------------x---x--------x----x----xx---|  
A|-6-------------8---10-------13---11---xx---| 
E|-------------------------------------------| 

e|------------------------------------------------------------------------------| 
B|------------------------------------------------------------------------------| 
G|-12--10--15-13-12-10-----8---------8-------8h10----8---------8-------8h10-8~--| 
D|-x---x---x--x--x--x--8h10-10-8-8h10-10-8h10----8h10-10-8-8h10-10-8h10---------| 
A|-10--8---13-11-10-8-----------------------------------------------------------| 
E|------------------------------------------------------------------------------| 

Verse2 
Rhythm: 
   Eb                         Eb 
e|-------------------------------------------------------| 
B|-------------------------------------------------------| 
G|-8--8-8--7-8--8-7-8--8-8/7--8--8-8--7-8--8-7-8--8-8/7--| 
D|-8--8-8--7-8--8-7-8--8-8/7--8--8-8--7-8--8-7-8--8-8/7--| 
A|-6--6-6--5-6--6-5-6--6-6/5--6--6-6--5-6--6-5-6--6-6/5--| 
E|-------------------------------------------------------| 

   C                                  Bb 
e|---------------------------------------------------------------| 
B|---------------------------------------------------------------| 
G|---------------------------------------------------------------| 
D|-10--10-10-8-10--10-8-10--10-10-10--8--8-8--6-8--8-6-8-8--8-8--| x2 
A|-10--10-10-8-10--10-8-10--10-10-10--8--8-8--6-8--8-6-8-8--8-8--| 
E|-8---8--8--6-8---8--6-8---8--8--8---6--6-6--4-6--6-4-6-6--6-6--| 

   Eb                         Eb 
e|-----------------------------------------------------------------| 
B|-----------------------------------------------------------------| 
G|-8~-8-8-8-8-8-8-8-8-8-8-8-8-8-8--8~-8-8-8-8-8-8-8-8-8-8-8-8-8-8--| 
D|-8~-8-8-8-8-8-8-8-8-8-8-8-8-8-8--8~-8-8-8-8-8-8-8-8-8-8-8-8-8-8--| 
A|-6~-6-6-6-6-6-6-6-6-6-6-6-6-6-6--6~-6-6-6-6-6-6-6-6-6-6-6-6-6-6--| 
E|-----------------------------------------------------------------| 
      PM.........................     PM......................... 

   C                                  Bb 
e|--------------------------------------------------------------| 
B|--------------------------------------------------------------| 
G|--------------------------------------------------------------| 
D|-10~-10-10-10-10-10-10-10-10--8~-8-8-8-8-8-8-8-8-8-8-8-8-8-8--| 
A|-10~-10-10-10-10-10-10-10-10--8~-8-8-8-8-8-8-8-8-8-8-8-8-8-8--| 
E|-8~--8--8--8--8--8--8--8--8---6~-6-6-6-6-6-6-6-6-6-6-6-6-6-6--| 
      PM......................     PM......................... 

Lead: 
   Ugat ng kahinaan at lakas... 
e|-----------------------------------------------| 
B|-----------------------------------------------| 
G|-----------------------------------------------| 
D|-8~-6--5--6--8--5--5h6--8~-6--5--6--3--5--5h6--| 
A|-----------------------------------------------| 
E|-----------------------------------------------| 
      PM.............        PM............. 


Rhythm: 
   Ab 
e|------------------------------------------| 
B|------------------------------------------| 
G|------------------------------------------| 
D|-6-6-6-6-6-6-6-6-6-6-6--------------------| 
A|-6-6-6-6-6-6-6-6-6-6-6-------------1------| 
E|-4-4-4-4-4-4-4-4-4-4-4---------1h3---3-1--| 


Lead: 
e|------------------------------------------| 
B|------------------------------------------| 
G|-5---7---10--8---------------------8------| 
D|-x---x---x---x-----------------8h10-10----| 
A|-3~--5~--8~--6~---------------------------| 
E|------------------------------------------| 

Chorus2 
Rhythm: 
   Eb                           Bb   C                Bb                 
e|---------------------------------------------------------------------| 
B|---------------------------------------------------------------------| 
G|-8-8-8-8-8-8-8-8-8-8-8-8-8-8--3-3--5-5-5-5-5-5-5-5--3-3-3-3-3-3-3-3--| 
D|-8-8-8-8-8-8-8-8-8-8-8-8-8-8--3-3--5-5-5-5-5-5-5-5--3-3-3-3-3-3-3-3--| x2 
A|-6-6-6-6-6-6-6-6-6-6-6-6-6-6--1-1--3-3-3-3-3-3-3-3--1-1-1-1-1-1-1-1--| 
E|---------------------------------------------------------------------| 

e|--------------------------------------------| 
B|--------------------------------------------| 
G|--------------------------------------------| 
D|-6~-----------------------------------------|  
A|-6~-----------------------------------------| 
E|-4~-----------------------------------------| 

Lead: 
e|-------------------------------------------| 
B|-------------------------------------------| 
G|-8-------------10--12-------15---12---xx---| 
D|-x-------------x---x--------x----x----xx---|  
A|-6-------------8---10-------13---11---xx---| 
E|-------------------------------------------| 

e|------------------------------------------------------------------------------| 
B|------------------------------------------------------------------------------| 
G|-12--10--15-13-12-10-----8---------8-------8h10----8---------8-------8h10-8~--| 
D|-x---x---x--x--x--x--8h10-10-8-8h10-10-8h10----8h10-10-8-8h10-10-8h10---------| 
A|-10--8---13-11-10-8-----------------------------------------------------------| 
E|------------------------------------------------------------------------------| 

Break 
Rhythm: 
            Ab                      Ab 
e|--------------------------------------------| 
B|--------------------------------------------| 
G|--------------------------------------------| 
G|----------6~----------------------6~--------| 
G|----------6~----------------------6~--------| 
E|-6h8--6h8-4~------------6h8--6h8--4~--------| 

           Ab                       Ab 
e|--------------------------------------------| 
B|-----------------------------------11~--8~--| 
G|--------------------------------------------| 
D|----------6~----------------------6~--------| 
A|----------6~----------------------6~--------| 
E|-6h8--6h8-4~------------6h8--6h8--4~--------| 

Lead: 
           Ab                        
e|--------------------------------------------| 
B|--------------4-----------------------------| 
G|----------------------------------8-7-5~----| 
G|--------------------------------------------| 
G|-----------------------8h10--8h10-----------| 
E|--------------------------------------------| 

           Ab                        
e|--------------------------------------------| 
B|--------------------------------------------| 
G|------------8-7-10~---------------8-7-------| 
D|--------------------------------------5~----| 
A|--8h10--8h10-----------8h10--8h10-----------| 
E|--------------------------------------------| 

Bridge 
Rhythm: 
   Eb                          Bb  C              Bb 
e|------------------------------------------------------------------| 
B|------------------------------------------------------------------| 
G|------------------------------------------------------------------| 
D|-8-8-8-8-8-8-8-8-8-8-8-8-8-8-3-3-5-5-5-5-5-5-5-5-3-3-3-3-3-3-3-3--| x2 
A|-6-6-6-6-6-6-6-6-6-6-6-6-6-6-1-1-3-3-3-3-3-3-3-3-1-1-1-1-1-1-1-1--| 
E|------------------------------------------------------------------| 
   PM............................................................. 

Lead:  
  2nd Ang yakap mo... 
e|------------------------------------------------------------------| 
B|------------------------------------------------------------------| 
G|------------------------------------------------------------------| 
D|-5-5-5-5-5-5-5-5-5-5-5-5-5-5--------------------------------------| 
A|-----------------------------5-5-6-6-6-6-6-6-6-6-5-5-5-5-5-5-5-5--| 
E|------------------------------------------------------------------| 
   PM...................................................... 

Both Guitars: 
   Ab            Bb           Bb         Eb-Bb-Eb-C-Ab  Eb 
e|-------------------------------------------------------------| 
B|-------------------------------------------------------------| 
G|----------------------------------------8---8-------8~--xxxx-| 
D|-6-6-6~--------8-8-8~-------6-6-6~------8-8-8-10-6--8~--xxxx-|  
A|-6-6-6~--------8-8-8~-------6-6-6~------6-8-6-10-6--6~--xxxx-| 
E|-4-4-4~--------6-6-6~-------4-4-4~--------6---8--4-----------| 

Chorus3 
Both Guitars: 
Rhythm: 
   Eb                           Bb   C                Bb                 
e|---------------------------------------------------------------------| 
B|---------------------------------------------------------------------| 
G|-8-8-8-8-8-8-8-8-8-8-8-8-8-8--3-3--5-5-5-5-5-5-5-5--3-3-3-3-3-3-3-3--| 
D|-8-8-8-8-8-8-8-8-8-8-8-8-8-8--3-3--5-5-5-5-5-5-5-5--3-3-3-3-3-3-3-3--| x2 
A|-6-6-6-6-6-6-6-6-6-6-6-6-6-6--1-1--3-3-3-3-3-3-3-3--1-1-1-1-1-1-1-1--| 
E|---------------------------------------------------------------------| 

Chorus4 
Lead: 
   Bb 
e|----------------------------------------------| 
B|----------------------------------------------| 
G|-8-8-8-8-8-8-8-8-8-8-8-8-8-8-8-8-8-8-8-8-8-8--| 
D|-x-x-x-x-x-x-x-x-x-x-x-x-x-x-x-x-x-x-x-x-x-x--| 
A|-6-6-6-6-6-6-6-6-6-6-6-6-6-6-6-6-6-6-6-6-6-6--| 
E|----------------------------------------------| 

Rhythm: 
    Bb   C                 Bb 
e|------------------------------------------| 
B|------------------------------------------| 
G|--3~---5~-5-5-5-5-5-5-5--3-3-3-3-3-3-3-3--| 
D|--3~---5~-5-5-5-5-5-5-5--3-3-3-3-3-3-3-3--| 
A|--1~---3~-3-3-3-3-3-3-3--1-1-1-1-1-1-1-1--| 
E|------------------------------------------| 
   Eb                           Bb   C                Bb                 
e|---------------------------------------------------------------------| 
B|---------------------------------------------------------------------| 
G|-8-8-8-8-8-8-8-8-8-8-8-8-8-8--3-3--5-5-5-5-5-5-5-5--3-3-3-3-3-3-3-3--| 
D|-8-8-8-8-8-8-8-8-8-8-8-8-8-8--3-3--5-5-5-5-5-5-5-5--3-3-3-3-3-3-3-3--| 
A|-6-6-6-6-6-6-6-6-6-6-6-6-6-6--1-1--3-3-3-3-3-3-3-3--1-1-1-1-1-1-1-1--| 
E|---------------------------------------------------------------------| 

   Ab                 Ab 
e|--------------------------------------------| 
B|--------------------------------------------| 
G|--------------------------------------------| 
D|-6~-----------------6-66-6-66-6-66-6-66-88--|  
A|-6~-----------------6-66-6-66-6-66-6-66-66--| 
E|-4~-----------------4-44-4-44-4-44-4-44-----| 
                        ..   ..   ..   .. .. 
Lead: 

e|-------------------------------------------| 
B|-------------------------------------------| 
G|-8-------------10--12-------15---12---xx---| 
D|-x-------------x---x--------x----x----xx---|  
A|-6-------------8---10-------13---11---xx---| 
E|-------------------------------------------| 

e|------------------------------------------------------------------------------| 
B|------------------------------------------------------------------------------| 
G|-12--10--15-13-12-10-----8---------8-------8h10----8---------8-------8h10-8~--| 
D|-x---x---x--x--x--x--8h10-10-8-8h10-10-8h10----8h10-10-8-8h10-10-8h10---------| 
A|-10--8---13-11-10-8-----------------------------------------------------------| 
E|------------------------------------------------------------------------------| 

e|--------------------------------------------| 
B|--------------------------------------------| 
G|-8\7~--7\5~--5\3~--------------------xx-----| 
D|-------------------------------------xx-----| 
A|-------------------------------------xx-----| 
E|--------------------------------------------| 

Outro 
Rhythm: 
   Eb                         Eb 
e|-------------------------------------------------------| 
B|-------------------------------------------------------| 
G|-8--8-8--7-8--8-7-8--8-8\7--8--8-8--7-8--8-7-8--8-8\7--| 
D|-8--8-8--7-8--8-7-8--8-8\7--8--8-8--7-8--8-7-8--8-8\7--| x2 
A|-6--6-6--5-6--6-5-6--6-6\5--6--6-6--5-6--6-5-6--6-6\5--| 
E|-------------------------------------------------------| 

Lead: 
e|-------------------------------------------------------------| 
B|-------------------------------------------------------------| 
G|-12--12-12-10-12--12-10-12--12-12\10-8--8-8-7-8--8-7-8--8----| 
D|-x---x--x--x--x---x--x--x---x--x--x--x--x-x-x-x--x-x-x--x-xx-| 
A|-10--10-10-8--10--10-8--10--10-10\8--6--6-6-5-6--6-5-6--6-xx-| 
E|----------------------------------------------------------xx-| 


*************************** 

| x    Dead note 
| h    Hammer-on 
| /    Slide up 
| \    Slide down 
| ~    Vibrato 
| .    Palm mute 

*************************** 
    	
fixar
fixar inscrever-se

enviado porenviado por: lucicamargo
cifra enviadaCorrigida por: sem correções
logo top cifrasComente
ico música do artistaMúsicas deste artista
ico curtiuCurtiu?
ico destaqueDestaque
Petaxxon Comunicação Online

Cifras.com.br - Melhor e mais completo site de cifras e tablaturas do Brasil Mais de 1 milhão de acordes de músicas cadastradas desde 2003
As informações contidas no nosso site são colaborações de seus usuários e podem conter erros, sendo assim, não nos responsabilizamos sobre nenhuma destas.

close
menos
mais
close
Cor dos acordes:

Cor da letra:

close
Alinhar acordes a direita Alinhar acordes a esquerda Alinhar acordes em baixo Alinhar acordes no topo
close
  Mostrar todos os acordes Esconder acordes muito fáceis Esconder acordes fáceis Esconder acordes intermediários
redimensionar
glossário