Cifras e Tablaturas
Kana

Kana

Nucléaire

Cifras Cancelar Versão de Impressão Print

Kana - Nucléaire

Tom: F

  • 0:00 / 0:00
  			Chorus :
| / / F / / / F / / / Bb/ / / Bb/ |
|-----------------3---------------|
|-3-----------------------0-3---0-|
|---------3-----------------------|
|---------------------------------|


Verse :
| / / Dm/ / / Dm / / Dm/ / / Dm/ | / / Gm/ / / Gm/ / / Gm/ / / Gm/ |x4
|---------------------------------|-0-----------------------2-0-----|
|-0-----------------------0---3---|-------------------------------3-|
|---------------------------------|---------------------------------|
|---------------------------------|---------------------------------|
    	

enviado porenviado por: anônimo
cifra enviadaCorrigida por: sem correções
logo top cifrasComente
ico música do artistaMúsicas deste artista
ico curtiuCurtiu?
ico destaqueDestaque
Petaxxon Comunicação Online

Cifras.com.br - Melhor e mais completo site de cifras e tablaturas do Brasil Mais de 1 milhão de acordes de músicas cadastradas desde 2003
As informações contidas no nosso site são colaborações de seus usuários e podem conter erros, sendo assim, não nos responsabilizamos sobre nenhuma destas.

close
menos
mais
close
Cor dos acordes:

Cor da letra:

close
Alinhar acordes a direita Alinhar acordes a esquerda Alinhar acordes em baixo Alinhar acordes no topo
close
  Mostrar todos os acordes Esconder acordes muito fáceis Esconder acordes fáceis Esconder acordes intermediários
redimensionar
glossário