Cifras e Tablaturas
Katatonia

Katatonia

Shifts

Cifras Cancelar Versão de Impressão
cifras

Katatonia - Shifts

fixar na tela  
Exibindo: vídeo-aula ver clipes redimensionar

Tom:

C

ver outros tons
  
Intro 

C |---------1----------------| 
G |--------------------------| 
D#|-----0h2---2-----------2--|  repeat throughout Intro and Verse 
A#|-0------------0--0h2h3----| 
F |--------------------------| 
C |--------------------------| 


Verse Part 

    Repeat Intro, but Second Guitar adds on every 4th bar: 
C |-1-----1-----1---------------| 
G |---0-----0-----0-------------| 
D#|-----0-----0-----0-------2---| 
A#|-------------------2h3-------| 
F |-----------------------------| 
C |-----------------------------| 



First PreChorus 
    (0:49) 
C |------------------|--------------------|--------------------|---------------------| 
G |------------------|--------------------|--------------------|------------6--------| 
D#|-------0h2--3p0---|-------0h2--3p0h2---|-----------2--------|-------3--------6-3--| 
A#|-----3------------|-----3--------------|-----3h5-------5----|-----5---5-----------| 
F |-1----------------|-1------------------|-3------------------|-4-------------------| 
C |------------------|--------------------|--------------------|---------------------| 


Verse End 

    Repeat Intro, but Second Guitar adds on every 4th bar: 
C |-1-----1-----1---------------| 
G |---0-----0-----0-------------| 
D#|-----0-----0-----0-------2---| 
A#|-------------------2h3-------| 
F |-----------------------------| 
C |-----------------------------| 



Second PreChorus 
    (0:49) 
C |------------------|--------------------|--------------------|---------------------| 
G |------------------|--------------------|--------------------|------------6--------| 
D#|-------0h2--3p0---|-------0h2--3p0h2---|-----------2--------|-------3--------6-3--| 
A#|-----3------------|-----3--------------|-----3h5-------5----|-----5---5-----------| 
F |-1----------------|-1------------------|-3------------------|-4-------------------| 
C |------------------|--------------------|--------------------|---------------------| 



Chorus 

C |-------5-------------5-------|-------0-------------0-------| 
G |---6p5---5h6-----6p5---5h6---|---6p5---5h6-----6p5---5h6---| 
D#|-7-------------7-------------|-5-------------5-------------|  play 8x 
A#|-----------------------------|-----------------------------| 
F |-----------------------------|-----------------------------| 
C |-----------------------------|-----------------------------| 



verse 2 

C |---------1----------------| 
G |--------------------------| 
D#|-----0h2---2-----------2--|  repeat throughout Verse 
A#|-0------------0--0h2h3----| 
F |--------------------------| 
C |--------------------------| 


Verse Second Part 

    Second Guitar adds on every 4th bar: 
C |-1-----1-----1---------------| 
G |---0-----0-----0-------------| 
D#|-----0-----0-----0-------2---| 
A#|-------------------2h3-------| 
F |-----------------------------| 
C |-----------------------------| 


First PreChorus 

C |------------------|--------------------|--------------------|---------------------| 
G |------------------|--------------------|--------------------|------------6--------| 
D#|-------0h2--3p0---|-------0h2--3p0h2---|-----------2--------|-------3--------6-3--| 
A#|-----3------------|-----3--------------|-----3h5-------5----|-----5---5-----------| 
F |-1----------------|-1------------------|-3------------------|-4-------------------| 
C |------------------|--------------------|--------------------|---------------------| 

 Repeat verse 2 and PreChorus 



Chorus 2 

C |-------5-------------5-------|-------0-------------0-------| 
G |---6p5---5h6-----6p5---5h6---|---6p5---5h6-----6p5---5h6---| 
D#|-7-------------7-------------|-5-------------5-------------|  play 8x 
A#|-----------------------------|-----------------------------| 
F |-----------------------------|-----------------------------| 
C |-----------------------------|-----------------------------| 



Bridge 
C |-------10-------------8------|-------6-------------5-------| 
G |---8--------8-----6-------6--|---4-------4-----3-------3---| 
D#|-7---7----------5---5--------|-3---3---------2---2---------| 
A#|-----------------------------|-----------------------------| 
F |-----------------------------|-----------------------------| 
C |-----------------------------|-----------------------------| 

C |-------3-------------3-------|-------3-------------3-------| 
G |-----------------------------|-----------------------------| 
D#|---3-------3-----3-------3---|---3-------3-----3-------3---|   
A#|-5---5---------5---5---------|-5---5---------5---5---------| 
F |-----------------------------|-----------------------------| 
C |-----------------------------|-----------------------------| 

play bridge 3x, then go to ending  


Bridge Ending 
C |-------10-------------8------|-------6-------------5-------| 
G |---8--------8-----6-------6--|---4-------4-----3-------3---| 
D#|-7---7----------5---5--------|-3---3---------2---2---------| 
A#|-----------------------------|-----------------------------| 
F |-----------------------------|-----------------------------| 
C |-----------------------------|-----------------------------| 

C |-------5-------------6-------|-------5-------------5-------| 
G |-----------------------------|-----------------------------| 
D#|---3-------3-----2-------2---|---1-------1-----1-------1---|   
A#|-5---5---------3---3---------|-2---2---------2---2---------| 
F |-----------------------------|-----------------------------| 
C |-----------------------------|-----------------------------| 




Outro Chorus 

C |-------5-------------5-------|-------0-------------0-------| 
G |---6p5---5h6-----6p5---5h6---|---6p5---5h6-----6p5---5h6---| 
D#|-7-------------7-------------|-5-------------5-------------| repeat and fade out 
A#|-----------------------------|-----------------------------| 
F |-----------------------------|-----------------------------| 
C |-----------------------------|-----------------------------| 


************************************ 

| x   Dead note 
| g   Grace note 
| (n) Ghost note 
| h   Hammer-on 
| p   Pull-off 
| r   Release 
| >   Accented note 
| t   Tapping 
| b   Bend 
| br  Bend release 
| pb  Pre-bend 
| pbr Pre-bend release 
| /   Slide up 
| \   Slide down 
| ~   Vibrato 
| s   Slap 
| P   Pop 
| PM  Palm mute 
| TR  Trill 
| N   Tremolo 

************************************ 
  

top 5 | katatonia
top rock'n roll
Outras músicas do artista letras do(a) Katatonia
Top cifras »Top artistas »
Petaxxon Comunicação Online
Cifras.com.br - Melhor e mais completo site de cifras e tablaturas do Brasil
Mais de 1 milhão de acordes de músicas cadastradas desde 2003
As informações contidas no nosso site são colaborações de seus usuários e podem conter erros, sendo assim, não nos responsabilizamos sobre nenhuma destas.
close
menos
mais
close
Cor dos acordes:

Cor da letra:

 

save
close
close
 
redimensionar