Cifras e Tablaturas
Kehlani

Kehlani

Gangsta

Cifras Cancelar Versão de Impressão
cifras

Kehlani - Gangsta

fixar na tela  
Exibindo: vídeo-aula ver clipes redimensionar

Tom:

  
E|----------------------------------------------------| 
B|------6-7/9-7-----------------------6-7/13-11-6-----| 
G|--7-8----------6-8-8/10-8h10-8--7-8-----------------| 
D|----------------------------------------------------| 
A|----------------------------------------------------| 
E|----------------------------------------------------| 


E|----------------------------------------------------| 
B|-6----6-7/9-7-----------------------6-7/13-11-14~---| 
G|--7-8----------6-8-8/10-8/10-8--7-8-----------------| 
D|----------------------------------------------------| 
A|----------------------------------------------------| 
E|----------------------------------------------------| 

E|----------------------------------------------------| 
B|----6---------------6-------------------------------| 
G|------8---6-8-6h8-----8---6-8-5h6p5-----------------| 
D|--8-----8---------8-----8-----------6/8-------------| 
A|----------------------------------------------------| 
E|----------------------------------------------------| 


E|----------------------------------------------------| 
B|-------6---------------6----------------------------| 
G|---------8---6-8-6h8-----8----6-8-6p5----5-6-6/8----| 
D|--8--8-----8---------8------8--------6/8------------| 
A|----------------------------------------------------| 
E|----------------------------------------------------| 


E|----------------------------------------------------| 
B|---------------9/11---------------------------------| 
G|-6-8-8/10-8-10--------------------------------------| 
D|----------------------------------------------------| 
A|----------------------------------------------------| 
E|----------------------------------------------------| 


E|----------------------------------------------------| 
B|------6-7/9-7-----------------------6-7/13-11-6-----| 
G|--7-8----------6-8-8/10-8h10-8--7-8-----------------| 
D|----------------------------------------------------| 
A|----------------------------------------------------| 
E|----------------------------------------------------| 


E|----------------------------------------------------| 
B|-6----6-7/9-7-----------------------6-7/13-11-14~---| 
G|--7-8----------6-8-8/10-8/10-8--7-8-----------------| 
D|----------------------------------------------------| 
A|----------------------------------------------------| 
E|----------------------------------------------------| 
  

top 5 | kehlani
top pop music
Outras músicas do artista letras do(a) Kehlani
Top cifras »Top artistas »
Petaxxon Comunicação Online
Cifras.com.br - Melhor e mais completo site de cifras e tablaturas do Brasil
Mais de 1 milhão de acordes de músicas cadastradas desde 2003
As informações contidas no nosso site são colaborações de seus usuários e podem conter erros, sendo assim, não nos responsabilizamos sobre nenhuma destas.
close
menos
mais
close
Cor dos acordes:

Cor da letra:

 

save
close
close
 
redimensionar