Cifras e Tablaturas
Ken Arai

Ken Arai

Next To You

Cifras Cancelar Versão de Impressão
cifras

Ken Arai - Next To You

fixar na tela  
Exibindo: vídeo-aula ver clipes redimensionar
  
      E  E  E  E  E  E  E  S S    E  E  E  S S E  E  E  E 
E|--1--0--1--5--3--------1-0-|--1--------3-1-0-----------| 
B|--------3------------------|--------1---------3--1--3--| 
G|-----2--------------3------|-----0---------------0-----| 
D|--0--------------3---------|---------------------------| 
A|--------------1------------|--3------------------------| 
E|---------------------------|---------------------------| 


   E  E  E  E  E  E  E  S S    E  E  E  S S E  E  E  E 
--1--0--1--5--3--------1-0-|--0--------3-1-3--6--5--0--| 
--------3------------------|--------1---------------1--| 
-----2--------------3------|-----0---------------0-----| 
--0--------------3---------|---------------------------| 
--------------1------------|--3------------------------| 
---------------------------|---------------------------| 


   E  E  E  E  E  E  E  S S    E  E  E  S S Q    E  E 
--1--0--1--5--3--------1-0-|--0--------3-1-8----5--3--| 
--------3------------------|--------1-----------------| 
-----2--------------3------|-----0--------------------| 
--0--------------3---------|---------------3----2-----| 
--------------1------------|--3-----------------------| 
---------------------------|--------------------------| 


   E  E  E  E  E  E  E  S S    E  E  E  S S E  E  E  E 
--1--0--1--5--3--------1-0-|--0--------3-1-0--8--5--3--| 
--------3------------------|--------1---------------1--| 
-----2--------------3------|-----0---------------0-----| 
--0--------------3---------|---------------------------| 
--------------1------------|--3------------------------| 
---------------------------|---------------------------| 



  E  E  E  E  Q    Q       E  E  E  E  Q    E  E     E  E  E  E  Q    Q      

--1-----1-----1----0----|--------------1----0--1--|--3-----3-----5----6----| 
--------3-----3---------|--3-----3-----3----------|-----------3--5---------| 
-----2-----2------------|--------3----------------|-----0------------------| 
--0---------------------|-----3-----3-------------|------------------------| 
------------------------|--1----------------------|--3---------------------| 
------------------------|-------------------------|------------------------| 


   E  E  Q    Q    E  E     E  E  E  E  Q    Q       E  E  E  E  Q    E  E 
--5-----5----3----1--0--|--1-----1-----1----3----|--0-----6-----5----3--1--| 
--------6---------------|--------3-----3---------|-------------------------| 
-----5------------------|-----2-----2------------|-------------------------| 
--3----------2----------|--0---------------------|-----3-----3-------------| 
------------------------|------------------------|--1----------------------| 
------------------------|------------------------|-------------------------| 


   E  E  E  E  Q    E  E     E  E  E  E  E  E  E  E 
--5-----3-----8----6--5--|--5-----6--5--3--5--3--1--| 
-----------3-------------|--------------------------| 
-----0-------------------|-----5--------------------| 
-------------------------|--3-----------2-----------| 
--3----------------------|--------------------------| 
-------------------------|--------------------------| 


   E  E  E  E  E  E  E  S S    E  E  E  S S E  E  E  E 
--1--0--1--5--3--------1-0-|--1--------3-1-0-----------| 
--------3------------------|--------1---------3--1--3--| 
-----2--------------3------|-----0---------------0-----| 
--0--------------3---------|---------------------------| 
--------------1------------|--3------------------------| 
---------------------------|---------------------------| 


   E  E  E  E  E  E  E  S S    E  E  E  S S E  E  E  E 
--1--0--1--5--3--------1-0-|--0--------3-1-3--6--5--0--| 
--------3------------------|--------1---------------1--| 
-----2--------------3------|-----0---------------0-----| 
--0--------------3---------|---------------------------| 
--------------1------------|--3------------------------| 
---------------------------|---------------------------| 


   E  E  E  E  E  E  E  S S    E  E  E  S S Q    E  E 
--1--0--1--5--3--------1-0-|--0--------3-1-8----5--3--| 
--------3------------------|--------1-----------------| 
-----2--------------3------|-----0--------------------| 
--0--------------3---------|---------------3----2-----| 
--------------1------------|--3-----------------------| 
---------------------------|--------------------------| 


   E  E  E  E  E  E  E  S S    E  E  E  S S E  E  E  E 
--1--0--1--5--3--------1-0-|--0--------3-1-0--8--5--3--| 
--------3------------------|--------1---------------1--| 
-----2--------------3------|-----0---------------0-----| 
--0--------------3---------|---------------------------| 
--------------1------------|--3------------------------| 
---------------------------|---------------------------| 


   E  E  E  E  E  E  E  S S    E  E  E  S S E  E  E  E 
--3--2--3--7--5--------3-2-|--3--------5-3-2--0-----2--| 
---------------------------|--------3------------3-----| 
--------------------5------|-----2---------------2-----| 
--------2--------5---------|--0------------------------| 
-----2--------3------------|---------------------------| 
--0------------------------|---------------------------| 


   E  E  E  E  E  E  E  S S    E  E  E  S S E  E  E  E 
--3--2--3--7--5--------3-2-|--2--------5-3-5--8--7--2--| 
---------------------------|--------3------------------| 
--------------------5------|-----2---------------2-----| 
--------2--------5---------|--0------------------------| 
-----2--------3------------|---------------------------| 
--0------------------------|---------------------------| 


   E  E  E  E  E  E  E  S S    E  E  E  S S  Q    E  E 
--3--2--3--7--5--------3-2-|--2--------5-3-10----7--5--| 
---------------------------|--------3------------------| 
--------------------5------|-----2----------0----------| 
--------2--------5---------|--0------------------4-----| 
-----2--------3------------|---------------------------| 
--0------------------------|---------------------------| 



                                                           ^                   
  E  E  E  E  E  E  E  S S    E  E  E  S S E   E  E  E     W                   

--3--2--3--7--5--------3-2-|--2--------5-3-2--10--7--5--|--3----------------|| 
---------------------------|--------3-------------------|--0----------------|| 
--------------------5------|-----2----------------2-----|--0----------------|| 
--------2--------5---------|--0-------------------------|--2----------------|| 
-----2--------3------------|----------------------------|-------------------|| 
--0------------------------|----------------------------|-------------------|| 
  

cifra enviadasem correções
enviado porenviada por:alyslima
top 5 | ken arai
top rock'n roll
Outras músicas do artista letras do(a) Ken Arai
Top cifras »Top artistas »
Petaxxon Comunicação Online
Cifras.com.br - Melhor e mais completo site de cifras e tablaturas do Brasil
Mais de 1 milhão de acordes de músicas cadastradas desde 2003
As informações contidas no nosso site são colaborações de seus usuários e podem conter erros, sendo assim, não nos responsabilizamos sobre nenhuma destas.
close
menos
mais
close
Cor dos acordes:

Cor da letra:

 

save
close
close
 
redimensionar