Cifras e Tablaturas
Kevin Garrett

Kevin Garrett

Little Bit Of You

Cifras Cancelar Versão de Impressão
cifras

Kevin Garrett - Little Bit Of You

fixar na tela  
Exibindo: vídeo-aula ver clipes redimensionar

Tom:

  
Verse 
           "...it's always something ain't it..." 
e|------------------------------------------------| 
B|------------------------------------------------| 
G|------------------------------------------------| x2 
D|--4--8--3----3--4--1----4--8--3----3-----1------| 
A|--6--9--4----4--6--2----6--9--4----4--4--2------| 
E|--------------------------------------6---------| 

Pre-Chorus 
"...just cause you and me are done..." 
e|-----------------| 
B|-----------------| 
G|-----11--10------| x4 
D|--9--13--11------| 
A|--9--------------| 
E|-----------------| 

Chorus 
            "...and I don't wanna know what it's like..." 
e|---------------------------| 
B|--7--11--9----6--7--4------| 
G|---------------------------| x2 
D|---------------------------| 
A|--6--9---8----4--6--2------| 
E|---------------------------| 

Verse 
"...ooh, can't you feel it fading..." 
e|--------------------------------------------------| 
B|--7--11--6----6--7--4----7--11--6----6--2--4------| 
G|--------------------------------------------------| x2 
D|--------------------------------------------------| 
A|--6--9---4----4--6--2----6--9---4----4--1--2------| 
E|--------------------------------------------------| 

Pre-Chorus 
"...just cause you and me are done..." 
e|-----------------| 
B|-----------------| 
G|-----11--10------| x4 
D|--9--13--11------| 
A|--9--------------| 
E|-----------------| 

Chorus 
            "...and I don't wanna know what it's like..." 
e|---------------------------| 
B|--7--11--9----6--7--4------| 
G|---------------------------| x8 
D|---------------------------| 
A|--6--9---8----4--6--2------| 
E|---------------------------| 

Outro 
e|------------------------------------------------| 
B|------------------------------------------------| 
G|------------------------------------------------| 
D|--4--8--3----3--4--1----4--8--3----3-----1------| 
A|--6--9--4----4--6--2----6--9--4----4--4--2------| 
E|--------------------------------------6---------| 
  

top 5 | kevin garrett
top rock'n roll
Outras músicas do artista letras do(a) Kevin Garrett
Top cifras »Top artistas »
Petaxxon Comunicação Online
Cifras.com.br - Melhor e mais completo site de cifras e tablaturas do Brasil
Mais de 1 milhão de acordes de músicas cadastradas desde 2003
As informações contidas no nosso site são colaborações de seus usuários e podem conter erros, sendo assim, não nos responsabilizamos sobre nenhuma destas.
close
menos
mais
close
Cor dos acordes:

Cor da letra:

 

save
close
close
 
redimensionar