Cifras e Tablaturas
KillSwitch Engage

KillSwitch Engage

In Due Time

Cifras Cancelar Versão de Impressão
cifras

KillSwitch Engage - In Due Time

fixar na tela  
Exibindo: vídeo-aula ver clipes redimensionar

Tom:

  
Tuning: C G C F A D  

Intro - (Guitarra 1) 

d|------------------------------------------------------------------ 
A|------------------------------------------------------------------ 
F|------------------------------------------------------------------ 
C|------------------------------------------------------------------ 
G|------------------------------------------------------------------ 
C|-0--0-0-10h12--0-0-10h12--0-0-0-0-10h13--0-0-10h13--0-0-0-0-10h13- 

---------------------------------------------------------------- 
---------------------------------------------------------------- 
---------------------------------------------------------------- 
---------------------------------------------------------------- 
---------------------------------------------------------------- 
-0-0-10h13-12~--0-0-10h12--0-0-10h12--0-0-0-0-10h12------------- 

---------------------------------------------------------------- 
---------------------------------------------------------------- 
---------------------------------------------------------------- 
---12\11----11\8----7-------------------------------------------   
---10\9------9\6----5------------------------------------------- 
-0--------0-------0--------------------------------------------- 

---------------------------------------------------------------- 
---------------------------------------------------------------- 
---------------------------------------------------------------- 
---------------------------------------------------------------- 
---------------------------------------------------------------- 
0--0-0-10h12--0-0-10h12--0-0-0-0-10h13--0-0-10h13--0-0-0-0-10h13 

---------------------------------------------------------------- 
---------------------------------------------------------------- 
---------------------------------------------------------------- 
---------------------------------------------------------------- 
---------------------------------------------------------------- 
-0-0-10h13-12~--0-0-10h12--0-0-10h12--0-0-0-0-10h12------------- 

---------------------------------------------------------------- 
---------------------------------------------------------------- 
---------------------------------------------------------------- 
----------4\3--------------------------------------------------- 
-0--1--3--2\1--2--1--0------------------------------------------ 
-0--1--3-------2--1--0------------------------------------------ 


Intro - (Guitarra 2) 

---------------------------------------------------------------- 
---------------------------------------------------------------- 
---------------------------------------------------------------- 
---------------------------------------------------------------- 
-------10h12------10h12----------10h13------10h13----------10h13 
-0--0-0--------0-0--------0-0-0-0--------0-0--------0-0-0-0----- 

---------------------------------------------------------------- 
---------------------------------------------------------------- 
---------------------------------------------------------------- 
---------------------------------------------------------------- 
-----10h13-12~-----10h12------10h12----------10h12-------------- 
-0-0-----------0-0--------0-0--------0-0-0-0-------------------- 

---------------------------------------------------------------- 
---------------------------------------------------------------- 
---------------------------------------------------------------- 
---15\14----14\12----11----------------------------------------- 
---13\12----12\10----9------------------------------------------ 
-0--------0--------0-------------------------------------------- 

---------------------------------------------------------------- 
---------------------------------------------------------------- 
---------------------------------------------------------------- 
----------4\3--------------------------------------------------- 
-0--1--3--2\1--2--1--0------------------------------------------ 
-0--1--3-------2--1--0------------------------------------------ 


Parte A 
---------------------------------------------------------------- 
---------------------------------------------------------------- 
---------------------------------------------------------------- 
---------------------------------------------------------------- 
-0--0-0--3-0-1-0--1-0-0-0--------------------------------------- 
-0--0-0--3-0-1-0--1-0-0-0--0-0-0--0-0-0------------------------- 

---------------------------------------------------------------- 
-------------------6--5----------------------------------------- 
-------------------5--5----------------------------------------- 
-------------------5--5--0-5-3~-2h3p2h3p2----------------------- 
-0--0-0--3-0-1-0---------------------------3-------------------- 
-0--0-0--3-0-1-0------------------------------------------------ 

---------------------------------------------------------------- 
---------------------------------------------------------------- 
---------------------------------------------------------------- 
---------------------------------------------------------------- 
-0--0-0--3-0-1-0--1-0-0-0--------------------------------------- 
-0--0-0--3-0-1-0--1-0-0-0--0-0-0--0-0-0------------------------- 

---------------------------------------------------------------- 
-------------------6--6-6---8--8-8------------------------------ 
-------------------3--3-3---5--5-5------------------------------ 
---------------------------------------------------------------- 
-0--0-0--3-0-1-0------------------------------------------------ 
-0--0-0--3-0-1-0------------------------------------------------ 


Refrão 

---------------------------------------------------------------- 
-----6---6----------8----8-------10---10---8---8---6---6--8----- 
-----5---5----------5----5-------10---10---9---9---5---5--5----- 
8--8---8-----5---5-----5---------------------------------------- 
---------------------------------------------------------------- 
----------------------------0--0----0----0---0---0---0---------- 

final do refrao 2 
---------------------------------------------------------------- 
---------------------------------------------------------------- 
---------------------------------------------------------------- 
-----10-----10---------10-------10------------------------------ 
---8------8----8-----8--------8----8---------------------------- 
-8------8---------10-------10----------------------------------- 

---------------------------------------------------------------- 
---------------------------------------------------------------- 
---------------------------------------------------------------- 
---------------------------------------------------------------- 
---------------------------------------------------------------- 
-0--0-0-0--0-0-0--0-0-0--0-0-0--0-0-0--0-0-0--0-0-0------------- 


---------------------------------------------------------------- 
---------------------------------------------------------------- 
---------------------------------------------------------------- 
-----10-----10---------10-------10------------------------------ 
---8------8----8-----8--------8----8---------------------------- 
-8------8---------10-------10----------------------------------- 

---------------------------------------------------------------- 
---------------------------------------------------------------- 
---------------------------------------------------------------- 
---------------------------------------------------------------- 
---------------------------------------------------------------- 
-0--0-0-0--0-0-0--0-0-0--0-0-0--0-0-0--0-0-0--0--0--0-0-0------- 


Especial - (Base) 
---------------------------------------------------------------- 
---------------------------------------------------------------- 
---------------------------------------------------------------- 
---------------------------------------------------------------- 
-----------------------------1-1-1--1--1------------------------ 
-0-0-0--0--0---0-0-0--0--0----------------3-3-3--3--3----------- 

---------------------------------------------------------------- 
---------------------------------------------------------------- 
---------------------------------------------------------------- 
---------------------------------------------------------------- 
----------------------------1-1-1--1--1---3-3-3--3--3----------- 
-0-0-0--0--0---0-0-0--0--0-------------------------------------- 


Especial - (Guitarra 1) 

---------------------------------------------------------------- 
----6-----6--------8--------8-------8-----------10-------10----- 
--7-----7-------10-------10------10---10-----10-------10-------- 
7-----7------10-------10------10----------12-------12----------- 
---------------------------------------------------------------- 
---------------------------------------------------------------- 

---------------------------------------------------------------- 
------13-----11----10------------------------------------------- 
---10-----10----10-----10-12-10--------------------------------- 
12-------------------------------------------------------------- 
---------------------------------------------------------------- 
---------------------------------------------------------------- 

Especial - (Guitarra 2) 

-----5-----5------8------8------8------------------------------- 
---6-----6-----10-----10-----10---10-----10-13----10-13--------- 
-7-----7-----9------9------9----------10-------10--------------- 
---------------------------------------------------------------- 
---------------------------------------------------------------- 
---------------------------------------------------------------- 

-------12----10------------------------------------------------- 
----10-------------13----11-10~--------------------------------- 
-10-------10----10----10---------------------------------------- 
---------------------------------------------------------------- 
---------------------------------------------------------------- 
---------------------------------------------------------------- 

Solo 

---------------------------------------------------------------- 
-13b15-16t-15r13~-10h11p10-------------------------------------- 
---------------------------12p10----10-10\12-12\10-10\9--------- 
---------------------------------10----------------------------- 
---------------------------------------------------------------- 
---------------------------------------------------------------- 

---------------------------------------------------------------- 
-10t-3h6--10t-3h6--10t-3h6--10t-3h6----------------------------- 
---------------------------------------------------------------- 
---------------------------------------------------------------- 
---------------------------------------------------------------- 
---------------------------------------------------------------- 

---------------------------------------------------------------- 
-13t-3h6--13t-3h6--13t-3h6--13t-3h6----------------------------- 
---------------------------------------------------------------- 
---------------------------------------------------------------- 
---------------------------------------------------------------- 
---------------------------------------------------------------- 

---------------------------------------------------------------- 
-13t-6h10--13t-6h10--13t-6h10--13t-6h10------------------------- 
---------------------------------------------------------------- 
---------------------------------------------------------------- 
---------------------------------------------------------------- 
---------------------------------------------------------------- 

---------------------------------------------------------------- 
-11t-6h10--11t-6h10--11t-6h10--11t-6h10------------------------- 
---------------------------------------------------------------- 
---------------------------------------------------------------- 
---------------------------------------------------------------- 
---------------------------------------------------------------- 

---------------------------------------------------------------- 
-15t-6h11--15t-6h11--15t-6h11--15t-6h11------------------------- 
---------------------------------------------------------------- 
---------------------------------------------------------------- 
---------------------------------------------------------------- 
---------------------------------------------------------------- 

---------------------------------------------------------------- 
-18t-6h11--18t-6h11--18t-6h11--18t-6h11------------------------- 
---------------------------------------------------------------- 
---------------------------------------------------------------- 
---------------------------------------------------------------- 
---------------------------------------------------------------- 

---------------------------------------------------------------- 
-18t-8h13--18t-8h13--18t-8h13--18t-8h13------------------------- 
---------------------------------------------------------------- 
---------------------------------------------------------------- 
---------------------------------------------------------------- 
---------------------------------------------------------------- 

---------------------------------------------------------------- 
-17t-8h13--17t-8h13--17t-8h13--17t-8h13------------------------- 
---------------------------------------------------------------- 
---------------------------------------------------------------- 
---------------------------------------------------------------- 
---------------------------------------------------------------- 

-15b17r15-15b17--15b17r15p13----17b18r17p15--------------------- 
-----------------------------15--------------------------------- 
---------------------------------------------------------------- 
---------------------------------------------------------------- 
---------------------------------------------------------------- 
---------------------------------------------------------------- 

---------------------------------------------------------------- 
-18/15--15/10--10/13--13/15--15/17--17/13--15~------------------ 
---------------------------------------------------------------- 
---------------------------------------------------------------- 
---------------------------------------------------------------- 
---------------------------------------------------------------- 

Final 
---------------------------------------------------------------- 
---------------------------------------------------------------- 
---------------------------------------------------------------- 
---------------------------------------------------------------- 
-------------------------------------------------------------12\ 
-0--0-0-10h12--0-0-10h12--0-0-0-0-10h13--0-0-10h13--0--0--0--12\ 


  

top 5 | killswitch engage
top punk rock
Outras músicas do artista letras do(a) KillSwitch Engage
Top cifras »Top artistas »
Petaxxon Comunicação Online
Cifras.com.br - Melhor e mais completo site de cifras e tablaturas do Brasil
Mais de 1 milhão de acordes de músicas cadastradas desde 2003
As informações contidas no nosso site são colaborações de seus usuários e podem conter erros, sendo assim, não nos responsabilizamos sobre nenhuma destas.
close
menos
mais
close
Cor dos acordes:

Cor da letra:

 

save
close
close
 
redimensionar