Cifras e Tablaturas
Cifras Cancelar Versão de Impressão
cifras

King Gizzard & The Lizard Wizard - Alter Me I

fixar na tela  
Exibindo: vídeo-aula ver clipes redimensionar

Tom:

  
Chorus 
"Altered Beast ,Alter Me" 
e|---------------------------------------------------------------------------| 
B|---------------------------------------------------------------------------| 
G|-----7---5-----------------------------------------------------------------| 
D|-7-------------7---9---7---------------------------------------------------| 
A|---------------------------------------------------------------------------| 
E|---------------------------------------------------------------------------| 

"Altered Beast ,Alter Me!" 
e|---------------------------------------------------------------------------| 
B|---------------------------------------------------------------------------| 
G|-----7---9-----------------------------------------------------------------| 
D|-7-------------7---9---7---------------------------------------------------| 
A|---------------------------------------------------------------------------| 
E|---------------------------------------------------------------------------| 

Feedback with scratchy pinch harmonics on high strings 

"Altered Beast ,Alter Me" 
e|---------------------------------------------------------------------------| 
B|---------------------------------------------------------------------------| 
G|-----7---5-----------------------------------------------------------------| 
D|-7-------------7---9---7---------------------------------------------------| 
A|---------------------------------------------------------------------------| 
E|---------------------------------------------------------------------------| 

"Altered Beast ,Alter Me!" 
e|---------------------------------------------------------------------------| 
B|---------------------------------------------------------------------------| 
G|-----7---9-----------------------------------------------------------------| 
D|-7-------------7---9---7---------------------------------------------------| 
A|---------------------------------------------------------------------------| 
E|---------------------------------------------------------------------------| 
  

top 5 | king gizzard & the lizard wizard
top rock'n roll
Outras músicas do artista letras do(a) King Gizzard & The Lizard Wizard
Top cifras »Top artistas »
Petaxxon Comunicação Online
Cifras.com.br - Melhor e mais completo site de cifras e tablaturas do Brasil
Mais de 1 milhão de acordes de músicas cadastradas desde 2003
As informações contidas no nosso site são colaborações de seus usuários e podem conter erros, sendo assim, não nos responsabilizamos sobre nenhuma destas.
close
menos
mais
close
Cor dos acordes:

Cor da letra:

 

save
close
close
 
redimensionar