Cifras e Tablaturas
Cifras Cancelar Versão de Impressão
cifras

King Gizzard & The Lizard Wizard - Evil Death Roll

fixar na tela  
Exibindo: vídeo-aula ver clipes redimensionar
  
LEAD GUITAR 

Main riff 
e|------------------------------------------------------------------------------------| 
B|----------------------------------------------12-----------------------15-----------| 
G|---------------------12-------------------------------------------------------------| 
D|-12---14---12---14--------12---14---12---14--------12---14---12---14--------12---14-| 
A|----0----0----0----0----0----0----0----0----0----0----0----0----0----0----0----0----| 
E|------------------------------------------------------------------------------------| 

Verse riff 
   F     G     A 
e|------------------------------------------------------------| 
B|------------------------------------------------------------| 
G|------------------------------------------------------------| 
D|-1--1--3--3--5-----7b-7--5--7-----7b-7--5--7-----7b-7--5--7-| 
A|------------------------------------------------------------| 
E|------------------------------------------------------------| x2 

Main riff 
e|------------------------------------------------------------------------------------------------12-| 
B|----------------------------------------------12-----------------------15--------------------------| 
G|---------------------12----------------------------------------------------------------------------| 
D|-12---14---12---14--------12---14---12---14--------12---14---12---14--------12---14---12---14------| 
A|----0----0----0----0----0----0----0----0----0----0----0----0----0----0----0----0----0----0----0----| 
E|---------------------------------------------------------------------------------------------------| 

Verse riff 
   F     G     A 
e|------------------------------------------------------------| 
B|------------------------------------------------------------| 
G|------------------------------------------------------------| 
D|-1--1--3--3--5-----7b-7--5--7-----7b-7--5--7-----7b-7--5--7-| 
A|------------------------------------------------------------| 
E|------------------------------------------------------------| x3 

"Evil death roll..." 
e|-------------------| 
B|-------------------| 
G|-------------------| 
D|-13---12---11---10-| 
A|-------------------| 
E|-------------------| 

Verse riff 
   F     G     A 
e|------------------------------------------------------------| 
B|------------------------------------------------------------| 
G|------------------------------------------------------------| 
D|-1--1--3--3--5-----7b-7--5--7-----7b-7--5--7-----7b-7--5--7-| 
A|------------------------------------------------------------| 
E|------------------------------------------------------------| x4 

"Evil death roll..." 
                           A                                                     F 
e|-----------------------------------------------------------------------------------------------------------| 
B|-----------------------------------------------------------------------------------------------------------| 
G|-----------------------------------------------------------------------------------------------------------| 
D|-13---12---11----10------5---7b-7--5--7---7b-7--5--7----13---12---11---10------1---3b-3--1--3---3b-3--1--3-| 
A|-----------------------------------------------------------------------------------------------------------| 
E|-----------------------------------------------------------------------------------------------------------| 

"Not as young, full of pain..." 
  Bb           Ab          G           F            Bb          Ab          G            F 
e|---------------------------------------------------------------------------------------------------------| 
B|---------------------------------------------------------------------------------------------------------| 
G|-7--7--------5--5--------4--4--------2--2---------7--7--------5--5--------4--4---------2--2--------------| 
D|---------------------------------------------------------------------------------------------------------| 
A|---------------------------------------------------------------------------------------------------------| 
E|---------------------------------------------------------------------------------------------------------| 

Verse riff 
   F     G     A 
e|------------------------------------------------------------| 
B|------------------------------------------------------------| 
G|------------------------------------------------------------| 
D|-1--1--3--3--5-----7b-7--5--7-----7b-7--5--7-----7b-7--5--7-| 
A|------------------------------------------------------------| 
E|------------------------------------------------------------| x3 

Evil death roll..." 
                           A                                                     F 
e|-----------------------------------------------------------------------------------------------------------| 
B|-----------------------------------------------------------------------------------------------------------| 
G|-----------------------------------------------------------------------------------------------------------| 
D|-13---12---11----10------5---7b-7--5--7---7b-7--5--7----13---12---11---10------1---3b-3--1--3---3b-3--1--3-| 
A|-----------------------------------------------------------------------------------------------------------| 
E|-----------------------------------------------------------------------------------------------------------| 

"Not as young, full of pain..." 
  Bb           Ab          G           F            Bb          Ab          G            F 
e|---------------------------------------------------------------------------------------------------------| 
B|---------------------------------------------------------------------------------------------------------| 
G|-7--7--------5--5--------4--4--------2--2---------7--7--------5--5--------4--4---------2--2--------------| 
D|---------------------------------------------------------------------------------------------------------| 
A|---------------------------------------------------------------------------------------------------------| 
E|---------------------------------------------------------------------------------------------------------| 

Verse riff 
   F     G     A 
e|------------------------------------------------------------| 
B|------------------------------------------------------------| 
G|------------------------------------------------------------| 
D|-1--1--3--3--5-----7b-7--5--7-----7b-7--5--7-----7b-7--5--7-| 
A|------------------------------------------------------------| 
E|------------------------------------------------------------| x3 

Buildup 
e|---------------------------------------------------------------------------------------------------| 
B|---------------------------------------------------------------------------------------------------| 
G|---------------------------5-----------7-----------9-----------10-----------12---------------------| 
D|-7-----------9-------------------------------------------------------------------------------------| 
A|---------------------------------------------------------------------------------------------------| 
E|-----------------------------------------------------------------------------------------------=---| 

Main riff 
e|------------------------------------------------------------------------------------------------12-| 
B|----------------------------------------------12-----------------------15--------------------------| 
G|---------------------12----------------------------------------------------------------------------| 
D|-12---14---12---14--------12---14---12---14--------12---14---12---14--------12---14---12---14------| 
A|----0----0----0----0----0----0----0----0----0----0----0----0----0----0----0----0----0----0----0----| 
E|---------------------------------------------------------------------------------------------------| x2 

e|------------------------------------------------------------------------------------------------12-| 
B|----------------------------------------------12-----------------------15--------------------------| 
G|---------------------12----------------------------------------------------------------------------| 
D|-12---14---12---14--------12---14---12---14--------12---14---12---14--------12---14---12---14------| 
A|---------------------------------------------------------------------------------------------------| 
E|---------------------------------------------------------------------------------------------------| x2 

Jam 
e|---------------------------------------------------------------------------------------------------------| 
B|------------------12--------------14--12--14--12--14--12--14--12--------------14--12--14--12--14--12--14-| 
G|---------------------------------------------------------------------------------------------------------| 
D|---------------------------------------------------------------------------------------------------------| 
A|---------------------------------------------------------------------------------------------------------| 
E|---------------------------------------------------------------------------------------------------------| 

e|---------------------------------------------------------------------------------------------------------| 
B|-14-12----------------------------14--12------------------------------14--12-----------------------------| 
G|-------14-12---12-14b-14--12-14b---------14--12---12-14b-14---12-14b---------14-12---12-14b-14---12-14b--| 
D|---------------------------------------------------------------------------------------------------------| 
A|---------------------------------------------------------------------------------------------------------| 
E|---------------------------------------------------------------------------------------------------------| 

   F 
e|------------------------------------------------------------| 
B|-------------------------------------------8----------------| 
G|--------------------------7-------10------------------------| 
D|---------8-------10-----------------------------------------| 
A|-10---------------------------------------------------------| 
E|------------------------------------------------------------| x8 


Nonagon riff 
e|-------------------------------------------------------------------------------------------------------| 
B|-------------------------------------------------------------------------------------------------------| 
G|-------------------------------------------------------------------------------------------------------| 
D|-------------------------------------------------------------------------------------------------------| 
A|-10-10-10----10-10-10-10-8--8--8--10------------------10-10-10----8--8--8--8--13-13-13-12--------------| 
E|-------------------------------------------------------------------------------------------------------| 


Harmonics 
e|-------------------------------------------------------------------------------------------------------12*-| 
B|-----------------------------------------------------------------------------12*---------------------------| 
G|---------------------12*------------------------7*---------------------------------------------------------| 
D|-----------12*--7*---------------------12*--7*--------------------12*--7*---------------------12*--7*------| 
A|-12*--7*---------------------12*--7*--------------------12*--7*---------------------12*--7*----------------| 
E|-----------------------------------------------------------------------------------------------------------| 
x8 

A A A A 

e|---------------------------------------------------------------------------------------------------------| 
B|-14-12----------------------------14--12------------------------------14--12-----------------------------| 
G|-------14-12---12-14b-14--12-14b---------14--12---12-14b-14---12-14b---------14-12---12-14b-14---12-14b--| 
D|---------------------------------------------------------------------------------------------------------| 
A|---------------------------------------------------------------------------------------------------------| 
E|---------------------------------------------------------------------------------------------------------| 
x2 

"Not as young, full of sin..." 
  Bb           Ab          G           F            Bb          Ab          G            F 
e|---------------------------------------------------------------------------------------------------------| 
B|---------------------------------------------------------------------------------------------------------| 
G|-7--7--------5--5--------4--4--------2--2---------7--7--------5--5--------4--4---------2--2--------------| 
D|---------------------------------------------------------------------------------------------------------| 
A|---------------------------------------------------------------------------------------------------------| 
E|---------------------------------------------------------------------------------------------------------| 

Verse riff 
   F     G     A 
e|------------------------------------------------------------| 
B|------------------------------------------------------------| 
G|------------------------------------------------------------| 
D|-1--1--3--3--5-----7b-7--5--7-----7b-7--5--7-----7b-7--5--7-| 
A|------------------------------------------------------------| 
E|------------------------------------------------------------| x3 

                                     A 
e|------------------------------------------------------------------------------------------------| 
B|------------------------------------------------------------------------------------------------| 
G|------------------------------------------------------------------------------------------------| 
D|-13-----12-----11------10----------5-----7b-7--5--7-----7b-7--5--7-----13-----12-----11------10-| 
A|------------------------------------------------------------------------------------------------| 
E|------------------------------------------------------------------------------------------------| 



************************************ 
| * Harmonics
| b Bend  
************************************ 
  

cifra enviadasem correções
enviado porenviada por:abelamin
top 5 | king gizzard & the lizard wizard
top rock'n roll
Outras músicas do artista letras do(a) King Gizzard & The Lizard Wizard
Top cifras »Top artistas »
Petaxxon Comunicação Online
Cifras.com.br - Melhor e mais completo site de cifras e tablaturas do Brasil
Mais de 1 milhão de acordes de músicas cadastradas desde 2003
As informações contidas no nosso site são colaborações de seus usuários e podem conter erros, sendo assim, não nos responsabilizamos sobre nenhuma destas.
close
menos
mais
close
Cor dos acordes:

Cor da letra:

 

save
close
close
 
redimensionar