Cifras e Tablaturas
Cifras Cancelar Versão de Impressão
cifras

King Gizzard & The Lizard Wizard - Robot Stop

fixar na tela  
Exibindo: vídeo-aula ver clipes redimensionar

Tom:

  
e|---------------------------------------------------------------------------|riff 1 
B|---------------------------------------------------------------------------| 
G|---------------------------------------------------------------------------| 
D|-5-5-5-5-5-3555-535-5555-8887----------------------------------------------| X2 
A|---------------------------------------------------------------------------| 
E|---------------------------------------------------------------------------| 

e|-|10h13|--|8h11|--|6h9|-----------------------------------------------------|riff 2  
B|---------------------------------------------------------------------------| repeat each pair about 8 time 
G|---------------------------------------------------------------------------|  
D|---------------------------------------------------------------------------| 
A|---------------------------------------------------------------------------| 
E|---------------------------------------------------------------------------| 

 waitin up, fresh it up, ????, dont forget about it 
e|---------------------------------------------------------------------------| 
B|---------------------------------------------------------------------------| 
G|-------------------------------10-10-10-12---------------------------------| lyrics start 
D|-------------------------------10-10-10-12---------------------------------| 
A|-------------------------------8--8--8--10---------------------------------| 
E|---------------------------------------------------------------------------| 

  
e|---------------------------------------------------------------------------| 
B|------3-6s8-----3-6s8-----8-6-3-6-3-3---8-6-3------------------------------| 
G|--3-5--------3-5------------------------------5-3--------------------------| 
D|-5----------5-------------------------------------5------------------------| 
A|---------------------------------------------------------------------------| 
E|---------------------------------------------------------------------------| 

e|---------------------------------------------------------------------------| 
B|---------------------------------------------------------------------------| 
G|-5----7----8----10----12---------------------------------------------------| 
D|-5----7----8----10----12---------------------------------------------------| 
A|-3----5----6----8-----10---------------------------------------------------| 
E|---------------------------------------------------------------------------|  
  

top 5 | king gizzard & the lizard wizard
top rock'n roll
Outras músicas do artista letras do(a) King Gizzard & The Lizard Wizard
Top cifras »Top artistas »
Petaxxon Comunicação Online
Cifras.com.br - Melhor e mais completo site de cifras e tablaturas do Brasil
Mais de 1 milhão de acordes de músicas cadastradas desde 2003
As informações contidas no nosso site são colaborações de seus usuários e podem conter erros, sendo assim, não nos responsabilizamos sobre nenhuma destas.
close
menos
mais
close
Cor dos acordes:

Cor da letra:

 

save
close
close
 
redimensionar