Cifras e Tablaturas
King Gizzard & The Lizard Wizard

King Gizzard & The Lizard Wizard

The Great Chain Of Being

Cifras Cancelar Versão de Impressão

King Gizzard & The Lizard Wizard - The Great Chain Of Being

Tom:

  			
Intro 

  7/4 
  (snare intro) 
E|----------------|----------------|--------------------|--------------------|--------------------| 
B|----------------|----------------|--------------------|--------------------|--------------------| 
G|----------------|----------------|--------------------|--------------------|--------------------| 
D|----------------|----------------|--------------------|--------------------|--------------------| 
A|----------------|----------------|--------------------|--------------------|--------------------| 
D|-------------7h9|9-9-12p9-9-9-7h9|7h9-9-9-12p9-9-9-7h9|7h9-9-9-12p9-9-9-7h9|7h9-9-9-12p9-9-9-7h9| 

E|----------------|--------------------|--------------------|--------------------| 
B|----------------|--------------------|--------------------|--------------------| 
G|----------------|--------------------|--------------------|--------------------| 
D|9-9-12p9-9-9-7h9|7h9-9-9-12p9-9-9-7h9|7h9-9-9-12p9-9-9-7h9|7h9-9-9-12p9-9-9-7h9| 
A|9-9-12p9-9-9-7h9|7h9-9-9-12p9-9-9-7h9|7h9-9-9-12p9-9-9-7h9|7h9-9-9-12p9-9-9-7h9| 
D|9-9-12p9-9-9-7h9|7h9-9-9-12p9-9-9-7h9|7h9-9-9-12p9-9-9-7h9|7h9-9-9-12p9-9-9-7h9| 

Verse 
  13/4 (4+4+5) 
  I am a rock with eyes to the sky-y-y-y-y 
E|----------------------------------------------------------| 
B|----------------------------------------------------------| 
G|----------------------------------------------------------| 
D|9-9--9-----9h12--9----9-----9h12--9h12--9---9---3----3---0| 
A|9-9--9-----9h12--9----9-----9h12--9h12--9---9---3----3---0| 
D|9-9--9-----9h12--9----9-----9h12--9h12--9---9---3----3---0| 

  I wait for my   time to ri-a-a-a-se 
E|------------------------------------------------------| 
B|------------------------------------------------------| 
G|------------------------------------------------------| 
D|9-9---9----9h12-9----9--9h12-9h12--9---9---3----12---9| 
A|9-9---9----9h12-9----9--9h12-9h12--9---9---3----12---9| 
D|9-9---9----9h12-9----9--9h12-9h12--9---9---3----12---9| 

  I come to disturb the     thro-o-o-o-ne   
E|--------------------------------------------------------| 
B|--------------------------------------------------------| 
G|--------------------------------------------------------| 
D|9-9----9--9h12----9----9--9h12--9h12--9---9---3----3---0| 
A|9-9----9--9h12----9----9--9h12--9h12--9---9---3----3---0| 
D|9-9----9--9h12----9----9--9h12--9h12--9---9---3----3---0| 

  17/4 (4+4+5+4) 
  Dropped by a woman worn a pocket in a co-o-o-oat 
E|--------------------------------------------------------------------------| 
B|--------------------------------------------------------------------------| 
G|--------------------------------------------------------------------------| 
D|9-------9--9------9h12--9-9--9h12-9h12--9--------9---3--3--0--3b--0--12--9| 
A|9-------9--9------9h12--9-9--9h12-9h12--9--------9---3--3--0--3b--0--12--9| 
D|9-------9--9------9h12--9-9--9h12-9h12--9--------9---3--3--0--3b--0--12--9| 

Chorus 
  4/4 (except for 5/4 last bar) 
 The Great Chain       Of Being     will fall to pie-ces in no  
E|--------------|--------------|---------------|--------------| 
B|--------------|--------------|---------------|--------------| 
G|--------------|--------------|---------------|--------------| 
D|12h14-14-14-14|12h14-14-14-14|0h2-4----2----1|2----4---7--8-| 
A|12h14-14-14-14|12h14-14-14-14|0h2-4----2----1|2----4---7--8-| 
D|12h14-14-14-14|12h14-14-14-14|0h2-4----2----1|2----4---7--8-| 

  time! 
E|-------| 
B|-------| 
G|-------| 
D|9-9-9-9| 
A|9-9-9-9| x4 
D|9-9-9-9| 

Intro Repeat 1 
  7/4 
E|----------------|--------------------|--------------------|--------------------| 
B|----------------|--------------------|--------------------|--------------------| 
G|----------------|--------------------|--------------------|--------------------| 
D|----------------|--------------------|--------------------|--------------------| 
A|----------------|--------------------|--------------------|--------------------| 
D|9-9-12p9-9-9-7h9|7h9-9-9-12p9-9-9-7h9|7h9-9-9-12p9-9-9-7h9|7h9-9-9-12p9-9-9-7h9| 

E|----------------|--------------------|--------------------|--------------------| 
B|----------------|--------------------|--------------------|--------------------| 
G|----------------|--------------------|--------------------|--------------------| 
D|9-9-12p9-9-9-7h9|7h9-9-9-12p9-9-9-7h9|7h9-9-9-12p9-9-9-7h9|7h9-9-9-12p9-9-9-7h9| 
A|9-9-12p9-9-9-7h9|7h9-9-9-12p9-9-9-7h9|7h9-9-9-12p9-9-9-7h9|7h9-9-9-12p9-9-9-7h9| 
D|9-9-12p9-9-9-7h9|7h9-9-9-12p9-9-9-7h9|7h9-9-9-12p9-9-9-7h9|7h9-9-9-12p9-9-9-7h9| 

Repeat Verse/Chorus/break 

Intro Repeat 2 
  7/4 
E|----------------|--------------------|--------------------|--------------------| 
B|----------------|--------------------|--------------------|--------------------| 
G|----------------|--------------------|--------------------|--------------------| 
D|----------------|--------------------|--------------------|--------------------| 
A|----------------|--------------------|--------------------|--------------------| 
D|9-9-12p9-9-9-7h9|7h9-9-9-12p9-9-9-7h9|7h9-9-9-12p9-9-9-7h9|7h9-9-9-12p9-9-9-7h9| 

E|----------------|--------------------|--------------------|--------------------| 
B|----------------|--------------------|--------------------|--------------------| 
G|----------------|--------------------|--------------------|--------------------| 
D|----------------|--------------------|--------------------|--------------------| 
A|----------------|--------------------|--------------------|--------------------| 
D|9-9-12p9-9-9-7h9|7h9-9-9-12p9-9-9-7h9|7h9-9-9-12p9-9-9-7h9|7h9-9-9-12p9-9-9-7h9| 

E|----------------|--------------------|--------------------|--------------------| 
B|----------------|--------------------|--------------------|--------------------| 
G|----------------|--------------------|--------------------|--------------------| 
D|9-9-12p9-9-9-7h9|7h9-9-9-12p9-9-9-7h9|7h9-9-9-12p9-9-9-7h9|7h9-9-9-12p9-9-9-7h9| 
A|9-9-12p9-9-9-7h9|7h9-9-9-12p9-9-9-7h9|7h9-9-9-12p9-9-9-7h9|7h9-9-9-12p9-9-9-7h9| 
D|9-9-12p9-9-9-7h9|7h9-9-9-12p9-9-9-7h9|7h9-9-9-12p9-9-9-7h9|7h9-9-9-12p9-9-9-7h9| 

Bridge 
  7/4 
  I see through your world's facade/I   decide to   punish your rock/The me-te-  ors pass by I 
E|---------------------------------|---------------------------|-----------------------------| 
B|---------------------------------|---------------------------|-----------------------------| 
G|---------------------------------|---------------------------|-----------------------------| 
D|9-9---12p9----9----9-------7h9---|7h9-9-9----12p9-9--9---7h9-|7h9--9---9--12p9-9--9-----7h9| 
A|9-9---12p9----9----9-------7h9---|7h9-9-9----12p9-9--9---7h9-|7h9--9---9--12p9-9--9-----7h9| 
D|9-9---12p9----9----9-------7h9---|7h9-9-9----12p9-9--9---7h9-|7h9--9---9--12p9-9--9-----7h9| 

  burn that god-damn church to the  
E|--------------------------------| 
B|--------------------------------| 
G|--------------------------------| 
D|9----9---9----7h9----9----9--7h9| 
A|9----9---9----7h9----9----9--7h9| 
D|9----9---9----7h9----9----9--7h9| 
  
  ground 
E|-----------------------------|-----------------------------| 
B|-----------------------------|-----------------------------| 
G|-----------------------------|-----------------------------| 
D|-----------------------------|-----------------------------| 
A|-----------------------------|-----------------------------| x2 
D|7h9-9-9-10--7h9-9-9--9p7p0-3b|7h9-9-9-10--7h9-9-9--9p7p0-3b| 

  I   climb stairs to  push you down I climb chains to cut you down 
E|----------------------------------|------------------------------| 
B|----------------------------------|------------------------------| 
G|----------------------------------|------------------------------| 
D|----------------------------------|------------------------------| 
A|----------------------------------|------------------------------|  
D|7h9-9-----10-----7h9-9----9---3b--|7h9-9---10-----7h9-9--9---3b--| 

  I   dis-rupt natu-ral or-der Rip that sal-ty lamb to slaugh- 
E|----------------------------|------------------------------| 
B|----------------------------|------------------------------| 
G|----------------------------|------------------------------| 
D|----------------------------|------------------------------| 
A|----------------------------|------------------------------|  
D|7h9-9--10----7h9--9---9--3b-|7h9-9----10--10--9--9---3b----| 

Outro 
  4/4 
  -ter 
E|------------------|------------------|-------------------------| 
B|------------------|------------------|-------------------------| 
G|------------------|------------------|-------------------------| 
D|------------------|------------------|9---3--3--0--3b--0--12--9| 
A|------------------|------------------|9---3--3--0--3b--0--12--9| 
D|9p7p0-3b--9p7p0-3b|9p7p0-3b--9p7p0-3b|9---3--3--0--3b--0--12--9| 


************************************ 

| x   Dead note 
| g   Grace note 
| (n) Ghost note 
| h   Hammer-on 
| p   Pull-off 
| r   Release 
| >   Accented note 
| t   Tapping 
| b   Bend 
| br  Bend release 
| pb  Pre-bend 
| pbr Pre-bend release 
| /   Slide up 
| \   Slide down 
| ~   Vibrato 
| s   Slap 
| P   Pop 
| PM  Palm mute 
| TR  Trill 
| N   Tremolo 

************************************ 
    	
fixar
fixar inscrever-se

enviado porenviado por: edsooliveira
cifra enviadaCorrigida por: sem correções
logo top cifrasComente
ico música do artistaMúsicas deste artista
ico curtiuCurtiu?
ico destaqueDestaque
Petaxxon Comunicação Online

Cifras.com.br - Melhor e mais completo site de cifras e tablaturas do Brasil Mais de 1 milhão de acordes de músicas cadastradas desde 2003
As informações contidas no nosso site são colaborações de seus usuários e podem conter erros, sendo assim, não nos responsabilizamos sobre nenhuma destas.

close
menos
mais
close
Cor dos acordes:

Cor da letra:

close
Alinhar acordes a direita Alinhar acordes a esquerda Alinhar acordes em baixo Alinhar acordes no topo
close
  Mostrar todos os acordes Esconder acordes muito fáceis Esconder acordes fáceis Esconder acordes intermediários
redimensionar
glossário