Cifras e Tablaturas
Cifras Cancelar Versão de Impressão
cifras

King Gizzard & The Lizard Wizard - The River

fixar na tela  
Exibindo: vídeo-aula ver clipes redimensionar

Tom:

  
E|------------------------------------------------------| 
B|------------------------------------------------------| 
G|-----7-7---7-7----------------------------------------|   
D|-----7-7---6 6----------------------------------------|  
A|------------------------------------------------------|  
E|---7-----7--------------------------------------------|  


Lead Guitar: 

E|----------------------------7-------------------------|  
B|--------------------------7-------9h10p9----9--7~-----|  
G|---------------6~---6-7-9---------------9-------------|  
D|--------6-7-9-----------------------------------------|  (2x) 
A|---9--------------------------------------------------|  
E|------------------------------------------------------|  


E|------------------------------------------------------| 
B|------------------------------------------------------| 
G|---4--------------------------------------------------|  
D|-----4---7-6 ----7~-6-4----4--------------------------| (3x) 
A|-------------7----------7-----------------------------| 
E|------------------------------------------------------| 


E|-------------------------------------------------------------| 
B|----------------------------------9b-------------------------| 
G|--4-------------------------------9b-------------------------| 
D|----4---7-6-----7~-6-4----4~---------------------------9-7---| 
A|------------7----------7------------------7-9--------------7-| 
E|------------------------------7~---------------7~------------| 


E|-------------------------------------------------------------| 
B|----------9b-------------------------------------------------| 
G|----------9b-------------------------------------------------| 
D|-------------------------------------------------------------| 
A|--7-9-------------------7-9----------------------------------| 
E|-------7~--------------------7~------------------------------| 


E|------------------------------------------------------------------| 
B|------------------------------------------------------------------| 
G|------------------------------------------------------------------|  
D|-------------------------------------------------------9p7-9p7----|  (2x) 
A|---7-9----9-7---7------9-------11----9--7---7-------------------9-| 
E|-------7~-----9----10~---10s12----10-----9----7~------------------| 
  

top 5 | king gizzard & the lizard wizard
top rock'n roll
Outras músicas do artista letras do(a) King Gizzard & The Lizard Wizard
Top cifras »Top artistas »
Petaxxon Comunicação Online
Cifras.com.br - Melhor e mais completo site de cifras e tablaturas do Brasil
Mais de 1 milhão de acordes de músicas cadastradas desde 2003
As informações contidas no nosso site são colaborações de seus usuários e podem conter erros, sendo assim, não nos responsabilizamos sobre nenhuma destas.
close
menos
mais
close
Cor dos acordes:

Cor da letra:

 

save
close
close
 
redimensionar