Cifras e Tablaturas
King Krule

King Krule

A Lizard State

Cifras Cancelar Versão de Impressão

King Krule - A Lizard State

Tom:

  			
Intro 

E|------------------------------------------| 
B|------------------------------------------| 
G|------------------------------------------| 
D|------------------------------------------| 
A|---------5-----5-------------1-----1------| 
E|-----7-7---7-7---7-------3-3---3-3---3--1-| 

Intro/Refrão 

E|---7---x---3---6--| 
B|---7---3---3---6--| 
G|---7---3---3---6--| 
D|---7---2---3---6--| 
A|---9---3---5---8--| 
E|---7---x---3---6--| 

Ponte 

E|---3---5---6---| 
B|---3---5---6---| 
G|---3---5---6---| 
D|---3---5---6---| 
A|---5---7---8---| 
E|---3---5---6---| 

Primeiro verso  

E|---7---x---| 
B|---7---7---| 
G|---7---7---| 
D|---7---5---| 
A|---x---7---| 
E|---7---x---| 

Refrão 2 

E|---7---x---7--8---7---x----7---7-------7---5---5-5-5---7---3---| 
B|---7---7---7--8---7---10---7---7---7---7---7---7-7-7---7---3---| 
G|---7---7---7--8---7---8----7---7---7---7---6---6-5-5---7---3---| 
D|---7---5---6--7---7---7----x---7---5---7---7---5-5-5---7---3---| 
A|---x---7----------x---9----7---9---7---9---5---7-7-7---x---5---| 
E|---7---x----------7---7----7---x---7---7---x---5-6-7---7---3---| 

Refrão 

E|---7---x---3---6--| 
B|---7---3---3---6--| 
G|---7---3---3---6--| 
D|---7---2---3---6--| 
A|---9---3---5---8--| 
E|---7---x---3---6--| 

Primeiro verso  

E|---7---x---| 
B|---7---7---| 
G|---7---7---| 
D|---7---5---| 
A|---x---7---| 
E|---7---x---| 
    	
fixar
fixar inscrever-se

enviado porenviado por: LINEKERS
cifra enviadaCorrigida por: sem correções
logo top cifrasComente
ico música do artistaMúsicas deste artista
ico curtiuCurtiu?
ico destaqueDestaque
Petaxxon Comunicação Online

Cifras.com.br - Melhor e mais completo site de cifras e tablaturas do Brasil Mais de 1 milhão de acordes de músicas cadastradas desde 2003
As informações contidas no nosso site são colaborações de seus usuários e podem conter erros, sendo assim, não nos responsabilizamos sobre nenhuma destas.

close
menos
mais
close
Cor dos acordes:

Cor da letra:

close
Alinhar acordes a direita Alinhar acordes a esquerda Alinhar acordes em baixo Alinhar acordes no topo
close
  Mostrar todos os acordes Esconder acordes muito fáceis Esconder acordes fáceis Esconder acordes intermediários
redimensionar
glossário