Cifras e Tablaturas
King Krule

King Krule

A Slide In New Drugs

Cifras Cancelar Versão de Impressão
cifras

King Krule - A Slide In New Drugs

fixar na tela  
Exibindo: vídeo-aula ver clipes redimensionar
  
Tuning - Drop C 

Main Riff 

   6/4 time (6 beats per bar)          Repeat this throughout 
D|--------------------------------------|---------------------------------| 
A|--------------------------------------|-3----3----3--3--------3----3----| 
F|-13----13----13--13\-------9-----9\---|-0----0----0--0--------0----0----| 
C|-13----13----13--13\------10----10\---|-0----0----0--0--------0----0----| 
G|-14----14----14--14\------10----10\---|-x----x----x--x--------x----x----| 
C|--------------------------------------|-5----5----5--5--------5----5----| 

D|---------------------------------|---------------------------------| 
A|-3----3----3--3-------3----3-----|-3----3----3--3------------------| 
F|-0----0----0--0-------0----0-----|-0----0----0--0-------6----6-----| 
C|-0----0----0--0-------0----0-----|-0----0----0--0-------4----4-----| 
G|-x----x----x--x-------x----x-----|-x----x----x--x-------4----4-----| 
C|-5----5----5--5-----0------------|-2----2----2--2-------4----4-----| 

D|---------------------------------| 
A|-3----3----3--3--------3----3----| 
F|-0----0----0--0--------0----0----| 
C|-0----0----0--0--------0----0----| 
G|-x----x----x--x--------x----x----| 
C|-5----5----5--5--------5----5----| 

Random guitar feedback is in the recording as well 

************************************ 
| x   Dead note 
| \   slide down neck toward nut 
************************************ 
  

top 5 | king krule
top pop music
Outras músicas do artista letras do(a) King Krule
Top cifras »Top artistas »
Petaxxon Comunicação Online
Cifras.com.br - Melhor e mais completo site de cifras e tablaturas do Brasil
Mais de 1 milhão de acordes de músicas cadastradas desde 2003
As informações contidas no nosso site são colaborações de seus usuários e podem conter erros, sendo assim, não nos responsabilizamos sobre nenhuma destas.
close
menos
mais
close
Cor dos acordes:

Cor da letra:

 

save
close
close
 
redimensionar