Cifras e Tablaturas
King Krule

King Krule

Emergency Blimp

Cifras Cancelar Versão de Impressão
cifras

King Krule - Emergency Blimp

fixar na tela  
Exibindo: vídeo-aula ver clipes redimensionar

Tom:

  Intro 

E|------------------|-----------------|-----------------|-----------------|-------------------| 
B|------------------|-----------------|-----------------|-----------------|-------------------| 
G|------------------|-----------------|-6-6-6-6-6-6-6-6-|-5-5-5-5-5-5-5-5-|-4-4-4-4-4-4-4-4---| 
D|------------------|-----------------|-7-7-7-7-7-7-7-7-|-6-6-6-6-6-6-6-6-|-5-5-5-5-5-5-5-5---| (2x) 
A|--4-4-4-4-4-4-4-4-|-4-4-4-4-4-4-4-4-|-x-x-x-x-x-x-x-x-|-x-x-x-x-x-x-x-x-|-x-x-x-x-x-x-x-x---| 
D|--0-0-0-0-0-0-0-0-|-0-0-0-0-0-0-0-0-|-7-7-7-7-7-7-7-7-|-6-6-6-6-6-6-6-6-|-5-5-5-5-5-5-5-5---| 

No help still 
No help still 

Verso 

E|------------------|-----------------|-----------------|-----------------|-------------------| 
B|------------------|-----------------|-0-0-0-0-0-0-0-0-|-0-0-0-0-0-0-0-0-|-0-0-0-0-0-0-0-0---| 
G|--6-6-6-6-6-6-6-6-|-6-6-6-6-6-6-6-6-|-6-6-6-6-6-6-6-6-|-5-5-5-5-5-5-5-5-|-4-4-4-4-4-4-4-4---| 
D|--7-7-7-7-7-7-7-7-|-7-7-7-7-7-7-7-7-|-7-7-7-7-7-7-7-7-|-6-6-6-6-6-6-6-6-|-5-5-5-5-5-5-5-5---| (4x) 
A|--4-4-4-4-4-4-4-4-|-4-4-4-4-4-4-4-4-|-x-x-x-x-x-x-x-x-|-x-x-x-x-x-x-x-x-|-x-x-x-x-x-x-x-x---| 
D|--0-0-0-0-0-0-0-0-|-0-0-0-0-0-0-0-0-|-7-7-7-7-7-7-7-7-|-6-6-6-6-6-6-6-6-|-5-5-5-5-5-5-5-5---| 

He said it hurts when he stares at lights 
I guess my brain was full, indecision's on the lefthand side 
But the doctor said it's cool, just take these in the dead of night 
Within the deepest sleep you'll fall 
My head hit bed but my mind’s still alive 

Refrão 

E|------------------|-----------------|-----------------|-----------------|-------------------| 
B|------------------|-----------------|-0-0-0-0-0-0-0-0-|-0-0-0-0-0-0-0-0-|-0-0-0-0-0-0-0-0---| 
G|--6-6-6-6-6-6-6-6-|-6-6-6-6-6-6-6-6-|-6-6-6-6-6-6-6-6-|-5-5-5-5-5-5-5-5-|-4-4-4-4-4-4-4-4---| 
D|--7-7-7-7-7-7-7-7-|-7-7-7-7-7-7-7-7-|-7-7-7-7-7-7-7-7-|-6-6-6-6-6-6-6-6-|-5-5-5-5-5-5-5-5---| (6x) 
A|--4-4-4-4-4-4-4-4-|-4-4-4-4-4-4-4-4-|-x-x-x-x-x-x-x-x-|-x-x-x-x-x-x-x-x-|-x-x-x-x-x-x-x-x---| 
D|--0-0-0-0-0-0-0-0-|-0-0-0-0-0-0-0-0-|-7-7-7-7-7-7-7-7-|-6-6-6-6-6-6-6-6-|-5-5-5-5-5-5-5-5---| 

These pills just make me, these pills just make me drool 
I say these pills just make me, these pills just make me 
These pills just make me, these pills just make me drool 
I told him he weren’t doing things right 
So he put me on some more, no change as a year flew by 
I gave that fraud a call, he sniggered when I told my plight 
He told me I was, he told me I was wrong 
He told me I was, he told me I was 
He told me I was, he told me I was 

Verso 

E|------------------|-----------------|-----------------|-----------------|-------------------| 
B|------------------|-----------------|-0-0-0-0-0-0-0-0-|-0-0-0-0-0-0-0-0-|-0-0-0-0-0-0-0-0---| 
G|--6-6-6-6-6-6-6-6-|-6-6-6-6-6-6-6-6-|-6-6-6-6-6-6-6-6-|-5-5-5-5-5-5-5-5-|-4-4-4-4-4-4-4-4---| 
D|--7-7-7-7-7-7-7-7-|-7-7-7-7-7-7-7-7-|-7-7-7-7-7-7-7-7-|-6-6-6-6-6-6-6-6-|-5-5-5-5-5-5-5-5---| (4x) 
A|--4-4-4-4-4-4-4-4-|-4-4-4-4-4-4-4-4-|-x-x-x-x-x-x-x-x-|-x-x-x-x-x-x-x-x-|-x-x-x-x-x-x-x-x---| 
D|--0-0-0-0-0-0-0-0-|-0-0-0-0-0-0-0-0-|-7-7-7-7-7-7-7-7-|-6-6-6-6-6-6-6-6-|-5-5-5-5-5-5-5-5---| 

And now she's sat alone, the deep of night 
She’s sitting in a pool 
Makes incisions on the righthand side 
Her blood is in me 
Her blood is an assault 
Yeah, her blood is in me 
Yeah, her blood is in me 
Yeah, her blood is in me 
Yeah, her blood is in the song 
Yeah, her blood is in me 
Yeah, her blood is in me 
Yeah, her blood is in me 
Yeah, her blood is in the walls 

Final 

E|------------------|-----------------|-----------------|-----------------|-------------------| 
B|------------------|-----------------|-0-0-0-0-0-0-0-0-|-0-0-0-0-0-0-0-0-|-0-0-0-0-0-0-0-0---| 
G|--6-6-6-6-6-6-6-6-|-6-6-6-6-6-6-6-6-|-6-6-6-6-6-6-6-6-|-5-5-5-5-5-5-5-5-|-4-4-4-4-4-4-4-4---| 
D|--7-7-7-7-7-7-7-7-|-7-7-7-7-7-7-7-7-|-7-7-7-7-7-7-7-7-|-6-6-6-6-6-6-6-6-|-5-5-5-5-5-5-5-5---| (4x) 
A|--4-4-4-4-4-4-4-4-|-4-4-4-4-4-4-4-4-|-x-x-x-x-x-x-x-x-|-x-x-x-x-x-x-x-x-|-x-x-x-x-x-x-x-x---| 
D|--0-0-0-0-0-0-0-0-|-0-0-0-0-0-0-0-0-|-7-7-7-7-7-7-7-7-|-6-6-6-6-6-6-6-6-|-5-5-5-5-5-5-5-5---| 

Yeah, no help still 
Yeah, no help still 
No help still 
No help still 
  

top 5 | king krule
top pop music
Outras músicas do artista letras do(a) King Krule
Top cifras »Top artistas »
Petaxxon Comunicação Online
Cifras.com.br - Melhor e mais completo site de cifras e tablaturas do Brasil
Mais de 1 milhão de acordes de músicas cadastradas desde 2003
As informações contidas no nosso site são colaborações de seus usuários e podem conter erros, sendo assim, não nos responsabilizamos sobre nenhuma destas.
close
menos
mais
close
Cor dos acordes:

Cor da letra:

 

save
close
close
 
redimensionar