Cifras e Tablaturas
King Krule

King Krule

Greyscale

Cifras Cancelar Versão de Impressão
cifras

King Krule - Greyscale

fixar na tela  
Exibindo: vídeo-aula ver clipes redimensionar

Tom:

  
E|--5--2--------5- THIS IS THE INTRO, WHICH IS PLAYED SIX TIMES. 
B|--7--3-----3--7- (LISTEN TO THE SONG IN TO KNOW THE STRUMMING) 
G|--6--2-----4--6-  
D|--7--4-----5--5-  
A|--5--2-----5--7-  
E|--------2--3--5- 
            Well i never reply... 
E-2-----0--0------------5--2------------- AFTER THE SIX TIME YOU PLAY THIS, RIGHT 
B-2--2--0--0--7---7--7--7--2--2--10--11-- AFTER THE LAST CHORD OF THE INTRO 
G-2--3--0--0--10--6--4--6--2--2--7---7--- 
D-2--4--2--2------------7-----2--7---7--- 
A-4--2--2--0------------5--2-----9---9--- 
E-------0--0------------------2--7---7--- 


E|-----5-------------5------------ THIS IS THE ENDING CHORDS OF THE SONG AND THEN 
B|--5--7--10--11--5--7--10--8--7-- YOU REPEAT THE BEGINNING 
G|--3--6--7---7---3--6--7---7--7-- 
D|--3--7--7---7---3--5--7---7--7-- 
A|--5--5--9---9---5--7--9---9--9-- 
E|--3-----7---7---3--5--7---7--7-- 

E|------------------------------------------------------------------------------ HE ALSO  PLAYS THIS IN THE 
B|---------7---------7---------7---------7--------7--------7--------7--------7-- BACKGROUND AFTER HE SAYS 
G|-----10--------10--------10--------10--------6--------6--------5--------5----- "It won't be right" 
D|--0---------0---------0---------0---------0--------0--------0--------0-------- 
A|------------------------------------------------------------------------------ 
E|------------------------------------------------------------------------------ 



TO FULLY UNDERSTAND GO TO THE VIDEO https://www.youtube.com/watch?v=FvnKZG7rDyA 
  

top 5 | king krule
top pop music
Outras músicas do artista letras do(a) King Krule
Top cifras »Top artistas »
Petaxxon Comunicação Online
Cifras.com.br - Melhor e mais completo site de cifras e tablaturas do Brasil
Mais de 1 milhão de acordes de músicas cadastradas desde 2003
As informações contidas no nosso site são colaborações de seus usuários e podem conter erros, sendo assim, não nos responsabilizamos sobre nenhuma destas.
close
menos
mais
close
Cor dos acordes:

Cor da letra:

 

save
close
close
 
redimensionar