Cifras e Tablaturas
Klangstof

Klangstof

Doolhof

Cifras Cancelar Versão de Impressão
cifras

Klangstof - Doolhof

fixar na tela  
Exibindo: vídeo-aula ver clipes redimensionar

Tom:

  
Gtr. 1 (panned slightly left) 
-|                        |                       |                          |   
e|-6-----------6-------------------------------------------------------------| 
B|-4-----------4-----------11----------11----------6-----------6-------------| 
G|---------------------------------------------------------------------------| 
D|---------------------------------------------------------------------------| 
A|-3-3-3-3-3-3-3-3-3-3-3-3-9-9-9-9-9-9-9-9-9-9-9-9-4-4-4-4-4-4-4-4-4-4-4-4---| 
E|---------------------------------------------------------------------------| 

Gtr. 2 (panned right) 
e|-6-6-6-6-6-6-6-6-6-6-6-6-6-6-6-6-6-6-6-6-6-6-6-6-6-6-6-6-6-6-6-6-6-6-6-6---| 
B|---------------------------------------------------------------------------| 
G|---------------------------------------------------------------------------| 
D|---------------------------------------------------------------------------| 
A|---------------------------------------------------------------------------| 
E|---------------------------------------------------------------------------| 
-|                        |                       |                          | 

-|                        |                       |                          | 
e|---------------------------------------------------------------------------| 
B|-------------------------6-----------6-----------4-------------------------| 
G|-3-----------3-----------------6-----------5-----------3-------------------| 
D|---------------------------------------------------------------------------| 
A|---------------------------------------------------------------------------| 
E|-2-2-2-2-2-2-2-2-2-2-2-2-6-6-6-6-6-6-4-4-4-4-4-4-2-2-2-2-2-2-2-2-2-2-2-2/--| 

e|-6-6-6-6-6-6-6-6-6-6-6-6-6-6-6-6-6-6-6-6-6-6-6-6-6-6-6-6-6-6-6-6-6-6-6-6---| 
B|---------------------------------------------------------------------------| 
G|---------------------------------------------------------------------------| 
D|---------------------------------------------------------------------------| 
A|---------------------------------------------------------------------------| 
E|---------------------------------------------------------------------------| 
-|                        |                       |                          | 

-|                        |                       |                          | 
e|---------------------------------------------------------------------------| 
B|-------------8-----------11----------11----------6-----------4-----6-------| 
G|-8-----10----------8-------------------------------------------------------| 
D|---------------------------------------------------------------------------| 
A|-------------------------9-9-9-9-9-9-9-9-9-9-9-9-4-4-4-4-4-4-4-4-4-4-4-4---| 
E|-8-8-8-8-8-8-8-8-8-8-8-8---------------------------------------------------| 

e|-6-6-6-6-6-6-6-6-6-6-6-6-6-6-6-6-6-6-6-6-6-6-6-6-6-6-6-6-6-6-6-6-6-6-6-6---| 
B|---------------------------------------------------------------------------| 
G|---------------------------------------------------------------------------| 
D|---------------------------------------------------------------------------| 
A|---------------------------------------------------------------------------| 
E|---------------------------------------------------------------------------| 
-|                        |                       |                          | 

-|                        |                       |                          | 
e|---------------------------------------------------------------------------| 
B|-------------------------6-----------6-----------4-----------4-------------| 
G|-3---------3-------------------6-----------5-----------3-----------3-------| 
D|---------------------------------------------------------------------------| 
A|---------------------------------------------------------------------------| 
E|-2-2-2-2-2-2-2-2-2-2-2-2-6-6-6-6-6-6-4-4-4-4-4-4-2-2-2-2-2-2-2-2-2-2-2-2---| 

e|-------------------------8-8-8-6-6-6-------6-6-6---------------------------| 
B|-6-6-6-6-6-6-6-6-6-6-6-6-------------9-9-9-------6-6-6-6-6-6-6-6-6-6-6-6---| 
G|---------------------------------------------------------------------------| 
D|---------------------------------------------------------------------------| 
A|---------------------------------------------------------------------------| 
E|---------------------------------------------------------------------------| 
-|                        |                       |                          | 

-|                        |                       |                          | 
e|-------------------------------------------------------------------4-------| 
B|-------------8-----------11----9-----11----------6-----4-----6-------------| 
G|-8-----10----------8-------------------------------------------------------| 
D|---------------------------------------------------------------------------| 
A|-------------------------9-9-9-9-9-9-9-9-9-9-9-9-4-4-4-4-4-4-4-4-4-4-4-4---| 
E|-8-8-8-8-8-8-8-8-8-8-8-8---------------------------------------------------| 

e|-6-6-6-6-6-6-6-6-6-4-4-4-6-6-6-6-6-6-6-6-6-6-6-4-6-6-6-6-6-6-6-6-6-6-6-6---| 
B|---------------------------------------------------------------------------| 
G|---------------------------------------------------------------------------| 
D|---------------------------------------------------------------------------| 
A|---------------------------------------------------------------------------| 
E|---------------------------------------------------------------------------| 
-|                        |                       |                          | 

-|                        |                       |                          | 
e|---------------------------------------------------------------------------| 
B|-------2-----------4-----6-----------6-----------4-----------4-------------| 
G|-3-----------3-----------------6-----------5-----------3-----------3-------| 
D|---------------------------------------------------------------------------| 
A|---------------------------------------------------------------------------| 
E|-2-2-2-2-2-2-2-2-2-2-2-2-6-6-6-6-6-6-4-4-4-4-4-4-2-2-2-2-2-2-2-2-2-2-2-2---| 

e|-4-4-4-4-4-4-4-4-4-4-4-4-8-8-8-6-6-6-------8-8-8---------------------------| 
B|-6-6-6-6-6-6-6-6-6-6-6-6-------------9-9-9-------6-6-6-6-6-6-6-6-6-6-6-6---| 
G|---------------------------------------------------------------------------| 
D|---------------------------------------------------------------------------| 
A|---------------------------------------------------------------------------| 
E|---------------------------------------------------------------------------| 
-|                        |                       |                          | 

-|                        |                       |                          | 
e|-------------------------------------------9-----------------------4-------| 
B|-------------8-----------11----9-----11----------6-----4-----6-------------| 
G|-8-----10----------8-------------------------------------------------------| 
D|---------------------------------------------------------------------------| 
A|-------------------------9-9-9-9-9-9-9-9-9-9-9-9-4-4-4-4-4-4-4-4-4-4-4-4---| 
E|-8-8-8-8-8-8-8-8-8-8-8-8---------------------------------------------------| 

e|-6-6-6-6-6-6-6-6-6-4-4-4-6-6-6-6-6-6-6-6-6-6-4-4-6-6-6-4-4-4-6-6-6-6-4-4---| 
B|---------------------------------------------------------------------------| 
G|---------------------------------------------------------------------------| 
D|---------------------------------------------------------------------------| 
A|---------------------------------------------------------------------------| 
E|---------------------------------------------------------------------------| 
-|                        |                       |                          | 

-|                        |                       |                          | 
e|---------------------------------------------------------------------------| 
B|-------2-----------2-----6-----------6-----------2-----------4-------------| 
G|-3-----------3-----------------6-----------5-----------3-----------3-------| 
D|---------------------------------------------------------------------------| 
A|---------------------------------------------------------------------------| 
E|-2-2-2-2-2-2-2-2-2-2-2-2-6-6-6-6-6-6-4-4-4-4-4-4-2-2-2-2-2-2-2-2-2-2-2-2---| 

e|-------------------------8-8-8-6-6-6-8-8-8-6-6-6---------------------------| 
B|-6-6-6-6-6-6-6-6-6-6-6-6-------------------------6-6-6-6-6-6-6-6-6-6-6-6---| 
G|---------------------------------------------------------------------------| 
D|---------------------------------------------------------------------------| 
A|---------------------------------------------------------------------------| 
E|---------------------------------------------------------------------------| 
-|                        |                       |                          | 

-|                        |                       |                          | 
e|-------------------------------------------9-----------------------4-------| 
B|-------------8-----------11----9-----11----------6-----4-----6-------------| 
G|-8-----10----------8-------------------------------------------------------| 
D|---------------------------------------------------------------------------| 
A|-------------------------9-9-9-9-9-9-9-9-9-9-9-9-4-4-4-4-4-4-4-4-4-4-4-4---| 
E|-8-8-8-8-8-8-8-8-8-8-8-8---------------------------------------------------| 

e|-6-6-6-6-6-6-6-6-6-4-4-4-4-6-6-6-6-6-6-6-6-4-4-4-6-6-6-4-4-4-6-6-6-6-4-4---| 
B|---------------------------------------------------------------------------| 
G|---------------------------------------------------------------------------| 
D|---------------------------------------------------------------------------| 
A|---------------------------------------------------------------------------| 
E|---------------------------------------------------------------------------| 
-|                        |                       |                          | 

-|                        |                       |                          | 
e|---------------------------------------------------------------------------| 
B|-------2-----------2-----6-----------6-----------2-----------4-------------| 
G|-3-----------3-----------------6-----------5-----------3-----------3-------| 
D|---------------------------------------------------------------------------| 
A|---------------------------------------------------------------------------| 
E|-2-2-2-2-2-2-2-2-2-2-2-2-6-6-6-6-6-6-4-4-4-4-4-4-2-2-2-2-2-2-2-2-2-2-2-2---| 

e|-------------------------8-8-8-6-6-6-8-8-8-6-6-6---------------------------| 
B|-6-6-6-6-6-6-6-6-6-6-6-6-------------------------6-6-6-6-6-6-6-6-6-6-6-6---| 
G|---------------------------------------------------------------------------| 
D|---------------------------------------------------------------------------| 
A|---------------------------------------------------------------------------| 
E|---------------------------------------------------------------------------| 
-|                        |                       |                          | 

-|                        |                       |                          | 
e|-------------------------------------------9-----------------------4-------| 
B|-------------8-----------11----9-----11----------6-----4-----6-------------| 
G|-8-----10----------8-------------------------------------------------------| 
D|---------------------------------------------------------------------------| 
A|-------------------------9-9-9-9-9-9-9-9-9-9-9-9-4-4-4-4-4-4-4-4-4-4-4-4---| 
E|-8-8-8-8-8-8-8-8-8-8-8-8---------------------------------------------------| 

e|-6-6-6-8-8-8-6-6-6-4-4-4-6-6-6-4-4-4-6-6-6-6-4-4-6-6-6-4-4-4-6-6-6-4-4-4---| 
B|---------------------------------------------------------------------------| 
G|---------------------------------------------------------------------------| 
D|---------------------------------------------------------------------------| 
A|---------------------------------------------------------------------------| 
E|---------------------------------------------------------------------------| 
-|                        |                       |                          | 

-|                        |                       |                          | 
e|---------------------------------------------------------------------------| 
B|-------2-----------2-----6-----------6-----------2-----------4-------------| 
G|-3-----------3-----------------6-----------5-----------3-----------3-------| 
D|---------------------------------------------------------------------------| 
A|---------------------------------------------------------------------------| 
E|-2-2-2-2-2-2-2-2-2-2-2-2-6-6-6-6-6-6-4-4-4-4-4-4-2-2-2-2-2-2-2-2-2-2-2-2---| 

e|-------------------------8-8-8-6-6-6-8-8-8-6-6-6---------------------------| 
B|-6-6-6-6-6-6-6-6-6-6-6-6-------------------------6-6-6-6-6-6-6-6-6-6-6-6---| 
G|---------------------------------------------------------------------------| 
D|---------------------------------------------------------------------------| 
A|---------------------------------------------------------------------------| 
E|---------------------------------------------------------------------------| 
-|                        |                       |                          | 

-|                        |                       |                          | 
e|-------------------------------------------9-----------------------4-------| 
B|-------------8-----------11----9-----11----------6-----4-----6-------------| 
G|-8-----10----------8-------------------------------------------------------| 
D|---------------------------------------------------------------------------| 
A|-------------------------9-9-9-9-9-9-9-9-9-9-9-9-4-4-4-4-4-4-4-4-4-4-4-4---| 
E|-8-8-8-8-8-8-8-8-8-8-8-8---------------------------------------------------| 

e|-6-6-6-6-6-6-6-6-6-6-4-4-6-6-6-6-6-6-6-6-6-6-4-4-6-6-6-4-4-4-6-6-6-6-4-4---| 
B|---------------------------------------------------------------------------| 
G|---------------------------------------------------------------------------| 
D|---------------------------------------------------------------------------| 
A|---------------------------------------------------------------------------| 
E|---------------------------------------------------------------------------| 
-|                        |                       |                          | 

-|                        |                       |                          | 
e|---------------------------------------------------------------------------| 
B|-------2-----------2-----6-----------6-----------2-----------4-------------| 
G|-3-----------3-----------------6-----------5-----------3-----------3-------| 
D|---------------------------------------------------------------------------| 
A|---------------------------------------------------------------------------| 
E|-2-2-2-2-2-2-2-2-2-2-2-2-6-6-6-6-6-6-4-4-4-4-4-4-2-2-2-2-2-2-2-2-2-2-2-2---| 

e|-------------------------4-4-4-6-6-6-4-4-4-6-6-6---------------------------| 
B|-6-6-6-6-6-6-6-6-6-6-6-6-------------------------6-6-6-6-6-6-6-6-6-6-6-6---| 
G|---------------------------------------------------------------------------| 
D|---------------------------------------------------------------------------| 
A|---------------------------------------------------------------------------| 
E|---------------------------------------------------------------------------| 
-|                        |                       |                          | 

-|                        |                       |                          | 
e|-------------------------------------------9-----------------------4-------| 
B|-------------8-----------11----9-----11----------6-----4-----6-------------| 
G|-8-----10----------8-------------------------------------------------------| 
D|---------------------------------------------------------------------------| 
A|-------------------------9-9-9-9-9-9-9-9-9-9-9-9-4-4-4-4-4-4-4-4-4-4-4-4---| 
E|-8-8-8-8-8-8-8-8-8-8-8-8---------------------------------------------------| 

e|-6-6-6-6-6-6-6-6-6-4-4-4-6-6-6-4-4-4-6-6-6-6-4-4-6-6-6-6-6-6-6-6-6-6-4-4---| 
B|---------------------------------------------------------------------------| 
G|---------------------------------------------------------------------------| 
D|---------------------------------------------------------------------------| 
A|---------------------------------------------------------------------------| 
E|---------------------------------------------------------------------------| 
-|                        |                       |                          | 

-|                        |                       |                          | 
e|---------------------------------------------------------------------------| 
B|-------2-----------2-----6-----------6-----------2-----------4-------------| 
G|-3-----------3-----------------6-----------5-----------3-----------3-------| 
D|---------------------------------------------------------------------------| 
A|---------------------------------------------------------------------------| 
E|-2-2-2-2-2-2-2-2-2-2-2-2-6-6-6-6-6-6-4-4-4-4-4-4-2-2-2-2-2-2-2-2-2-2-2-2---| 

e|-------------------------4-4-4-6-6-6-4-4-4-4-6-6---------------------------| 
B|-6-6-6-6-6-6-6-6-6-6-6-6-------------------------6-6-6-6-6-6-6-6-6-6-6-6---| 
G|---------------------------------------------------------------------------| 
D|---------------------------------------------------------------------------| 
A|---------------------------------------------------------------------------| 
E|---------------------------------------------------------------------------| 
-|                        |                       |                          | 

-|                        |                       |                          | 
e|-------------------------------------------9-----------------------4-------| 
B|-------------8-----------11----9-----11----------6-----4-----6-------------| 
G|-8-----10----------8-------------------------------------------------------| 
D|---------------------------------------------------------------------------| 
A|-------------------------9-9-9-9-9-9-9-9-9-9-9-9-4-4-4-4-4-4-4-4-4-4-4-4---| 
E|-8-8-8-8-8-8-8-8-8-8-8-8---------------------------------------------------| 

e|-6-6-6-6-6-6-6-6-6-4-4-4-6-6-6-4-4-4-6-6-6-6-4-4-6-6-6-6-6-6-6-6-6-6-4-4---| 
B|---------------------------------------------------------------------------| 
G|---------------------------------------------------------------------------| 
D|---------------------------------------------------------------------------| 
A|---------------------------------------------------------------------------| 
E|---------------------------------------------------------------------------| 
-|                        |                       |                          | 

-|                        |                       |                          | 
e|---------------------------------------------------------------------------| 
B|-------2-----------2-----6-----------6-----------2-----------4-------------| 
G|-3-----------3-----------------6-----------5-----------3-----------3-------| 
D|---------------------------------------------------------------------------| 
A|---------------------------------------------------------------------------| 
E|-2-2-2-2-2-2-2-2-2-2-2-2-6-6-6-6-6-6-4-4-4-4-4-4-2-2-2-2-2-2-2-2-2-2-2-2---| 

e|-------------------------4-4-4-6-6-6-4-4-4-4-6-6-6-6-6-6-6-6-6-6-6-6-6-6---| 
B|-6-6-6-6-6-6-6-6-6-6-6-6---------------------------------------------------| 
G|---------------------------------------------------------------------------| 
D|---------------------------------------------------------------------------| 
A|---------------------------------------------------------------------------| 
E|---------------------------------------------------------------------------| 
-|                        |                       |                          | 

-|                        |                       |                          | 
e|---------------------------------------------------------------------------| 
B|-6-----------6-------------------------------------------------------------| 
G|-------6-----------6-----3~------------------------------------------------| 
D|---------------------------------------------------------------------------| 
A|---------------------------------------------------------------------------| 
E|-6-6-6-6-6-6-6-6-6-6-6-6-2~------------------------------------------------| 

e|-6-6-6-6-6-6-4-4-4-4-4-4-6~------------------------------------------------| 
B|---------------------------------------------------------------------------| 
G|---------------------------------------------------------------------------| 
D|---------------------------------------------------------------------------| 
A|---------------------------------------------------------------------------| 
E|---------------------------------------------------------------------------| 
-|                        |                       |                          | 

Outro 
e|-----9--13-11--9~--| 
B|-11----------------| 
G|-------------------| x3 
D|-------------------| 
A|-------------------| 
E|-------------------| 

-|                                  |                                        | 
e|-16------16--------16------16--------16------16--------16------16----------| 
B|-----18-----18---------18-----18---------18-----18---------18-----18-------| 
G|---------------------------------------------------------------------------| 
D|---------------------------------------------------------------------------| 
A|---------------------------------------------------------------------------| 
E|---------------------------------------------------------------------------| 

e|-----9--13-11--9~--| 
B|-11----------------| 
G|-------------------| x7 
D|-------------------| 
A|-------------------| 
E|-------------------| 

-|                                  |                                        | 
e|-16------16--------16------16--------16------16--------16------16----------| 
B|-----18-----18---------18-----18---------18-----18---------18-----18-------| 
G|---------------------------------------------------------------------------| 
D|---------------------------------------------------------------------------| 
A|---------------------------------------------------------------------------| 
E|---------------------------------------------------------------------------| 

e|-----9--13-11--9~--| 
B|-11----------------| 
G|-------------------| x8 
D|-------------------| 
A|-------------------| 
E|-------------------| 

Feel free to comment! 

************************************ 

| ~   let note ring 

************************************ 
  

top 5 | klangstof
top rock'n roll
Outras músicas do artista letras do(a) Klangstof
Top cifras »Top artistas »
Petaxxon Comunicação Online
Cifras.com.br - Melhor e mais completo site de cifras e tablaturas do Brasil
Mais de 1 milhão de acordes de músicas cadastradas desde 2003
As informações contidas no nosso site são colaborações de seus usuários e podem conter erros, sendo assim, não nos responsabilizamos sobre nenhuma destas.
close
menos
mais
close
Cor dos acordes:

Cor da letra:

 

save
close
close
 
redimensionar