Cifras e Tablaturas
Cifras Cancelar Versão de Impressão
cifras

Knuckle Puck - Gone

fixar na tela  
Exibindo: vídeo-aula ver clipes redimensionar

Tom:

D#

ver outros tons
  
Intro 
D#|---------------------------------------------------------------------------| 
A#|---------------------------------------------------------------------------| 
F#|------------------------14--16--14--12----14--16--14--12-------------------| 
C#|-12--12---x-x--12--12------------------------------------------------------| 
G#|-10--10---x-x--10--10---12--14--12--10----12--14--12--10-------------------| 
D#|-8---8----x-x--8---8-------------------------------------------------------| 

D#|---------------------------------------------------------------------------| 
A#|---------------------------------------------------------------------------| 
F#|-14--12--14--14/16--14--16--14--12--11--11/12---14--12--14--14/16----------| 
C#|---------------------------------------------------------------------------| 
G#|-12--10--12--12/14--12--14--12--10--9----9/10---12--10--12--12/14----------| 
D#|---------------------------------------------------------------------------| 

D#|------------------------------------------------------------------------------------| 
A#|------------------------------------------------------------------------------------| 
F#|-12--14--12--10----12--14--12--10----14--12--14--14/12---14--16--14--12--11--11/12--| 
C#|------------------------------------------------------------------------------------| 
G#|-12--14--12--10----12--14--12--10----12--10--12--12/10---12--14--12--10--9----9/10--| 
D#|------------------------------------------------------------------------------------| 

Verse 
D#|---------------------------------------------------------------------------| 
A#|-13-13-13-13--13-13-13-13----15-15-15-15--15-15-15-15----------------------| 
F#|-12-12-12-12--12-12-12-12----12-12-12-12--12-12-12-12----------------------| 
C#|-0--0--0--0---0--0--0--0-----0--0--0--0---0--0--0--0-----------------------| 
G#|---------------------------------------------------------------------------| 
D#|---------------------------------------------------------------------------| 

D#|---------------------------------------------------------------------------| 
A#|-12-12-12-12--12-12-12-12----10-10-10-10--10-10-10-10----------------------| 
F#|-12-12-12-12--12-12-12-12----12-12-12-12--12-12-12-12----------------------| 
C#|-0--0--0--0---0--0--0--0-----0--0--0--0---0--0--0--0-----------------------| 
G#|---------------------------------------------------------5---8-------------| 
D#|---------------------------------------------------------3---5-------------| 

D#|--------------------3---------------------------------3--------------------| 
A#|---8------------------3---3-----------8-----------------3---3--------------| 
F#|-7---7/9\7--------------0---0h2-----7---7/9\7-------------0---0h2----------| 
C#|------------7\5--------------------------------7\5-------------------------| 
G#|---------------------------------------------------------------------------| 
D#|---------------------------------------------------------------------------| 

Chorus 
D#|--------------------------------------------------------------------------------| 
A#|--------------------------------------------------------------------------------| 
F#|--------------------------------------------------------------------------------| 
C#|-12--12---x-x--12--12---5-5-5-5-5-5-5-5--12--12---x-x--12--12--5-5-5-5-5-5-5-5--| 
G#|-10--10---x-x--10--10---5-5-5-5-5-5-5-5--10--10---x-x--10--10--5-5-5-5-5-5-5-5--| 
D#|-8---8----x-x--8---8----5-5-5-5-5-5-5-5--8---8----x-x--8---8---5-5-5-5-4-4-4-4--| 

D#|--------------------------------------------------------------------------------| 
A#|--------------------------------------------------------------------------------| 
F#|--------------------------------------------------------------------------------| 
C#|-12--12---x-x--12--12---5-5-5-5-5-5-5-5--12--12---x-x--12--12--5-5-5-5-5-5-5-5--| 
G#|-10--10---x-x--10--10---5-5-5-5-5-5-5-5--10--10---x-x--10--10--5-5-5-5-5-5-5-5--| 
D#|-8---8----x-x--8---8----5-5-5-5-5-5-5-5--8---8----x-x--8---8---5-5-5-5-4-4-4-4--| 

verse 2 
D#|--------------------3---------------------------------3--------------------| 
A#|---8------------------3---3-----------8-----------------3---3--------------| 
F#|-7---7/9\7--------------0---0h2-----7---7/9\7-------------0---0h2----------| 
C#|------------7\5--------------------------------7\5-------------------------| 
G#|---------------------------------------------------------------------------| 
D#|---------------------------------------------------------------------------| 

D#|---------------------------------------------------------------------------| 
A#|-13-13-13-13--13-13-13-13----15-15-15-15--15-15-15-15----------------------| 
F#|-12-12-12-12--12-12-12-12----12-12-12-12--12-12-12-12----------------------| 
C#|-0--0--0--0---0--0--0--0-----0--0--0--0---0--0--0--0-----------------------| 
G#|---------------------------------------------------------------------------| 
D#|---------------------------------------------------------------------------| 

D#|---------------------------------------------------------------------------| 
A#|-12-12-12-12--12-12-12-12----10-10-10-10--10-10-10-10----------------------| 
F#|-12-12-12-12--12-12-12-12----12-12-12-12--12-12-12-12----------------------| 
C#|-0--0--0--0---0--0--0--0-----0--0--0--0---0--0--0--0-----------------------| 
G#|---------------------------------------------------------5---8-------------| 
D#|---------------------------------------------------------3---5-------------| 

D#|---------------------------------------------------------------------------| 
A#|-13-13-13-13--13-13-13-13----15-15-15-15--15-15-15-15----------------------| 
F#|-12-12-12-12--12-12-12-12----12-12-12-12--12-12-12-12----------------------| 
C#|-0--0--0--0---0--0--0--0-----0--0--0--0---0--0--0--0-----------------------| 
G#|---------------------------------------------------------------------------| 
D#|---------------------------------------------------------------------------| 

D#|---------------------------------------------------------------------------| 
A#|-12-12-12-12--12-12-12-12----10-10-10-10--10-10-10-10----------------------| 
F#|-12-12-12-12--12-12-12-12----12-12-12-12--12-12-12-12----------------------| 
C#|-0--0--0--0---0--0--0--0-----0--0--0--0---0--0--0--0-----------------------| 
G#|---------------------------------------------------------------------------| 
D#|---------------------------------------------------------------------------| 

Chorus 
D#|--------------------------------------------------------------------------------| 
A#|--------------------------------------------------------------------------------| 
F#|--------------------------------------------------------------------------------| 
C#|-12--12---x-x--12--12---5-5-5-5-5-5-5-5--12--12---x-x--12--12--5-5-5-5-5-5-5-5--| 
G#|-10--10---x-x--10--10---5-5-5-5-5-5-5-5--10--10---x-x--10--10--5-5-5-5-5-5-5-5--| 
D#|-8---8----x-x--8---8----5-5-5-5-5-5-5-5--8---8----x-x--8---8---5-5-5-5-4-4-4-4--| 

D#|--------------------------------------------------------------------------------| 
A#|--------------------------------------------------------------------------------| 
F#|--------------------------------------------------------------------------------| 
C#|-12--12---x-x--12--12---5-5-5-5-5-5-5-5--12--12---x-x--12--12--5-5-5-5-5-5-5-5--| 
G#|-10--10---x-x--10--10---5-5-5-5-5-5-5-5--10--10---x-x--10--10--5-5-5-5-5-5-5-5--| 
D#|-8---8----x-x--8---8----5-5-5-5-5-5-5-5--8---8----x-x--8---8---5-5-5-5-4-4-4-4--| 

Bridge 
D#|---------------------------------------------------------------------------| 
A#|---------------------------------------------------------------------------| 
F#|-7/12----7/9\7-----7/12---14\11-------7/12----7/9\7-----7/12---14\11-------| 
C#|---------------------------------------------------------------------------| repeat 4 times 
G#|-5/10----5/7\5-----5/10---12\9--------5/10----5/7\5-----5/10---12\9--------| 
D#|---------------------------------------------------------------------------| 

Chorus 
D#|--------------------------------------------------------------------------------| 
A#|--------------------------------------------------------------------------------| 
F#|--------------------------------------------------------------------------------| 
C#|-12--12---x-x--12--12---5-5-5-5-5-5-5-5--12--12---x-x--12--12--5-5-5-5-5-5-5-5--| 
G#|-10--10---x-x--10--10---5-5-5-5-5-5-5-5--10--10---x-x--10--10--5-5-5-5-5-5-5-5--| 
D#|-8---8----x-x--8---8----5-5-5-5-5-5-5-5--8---8----x-x--8---8---5-5-5-5-4-4-4-4--| 

D#|--------------------------------------------------------------------------------| 
A#|--------------------------------------------------------------------------------| 
F#|--------------------------------------------------------------------------------| 
C#|-12--12---x-x--12--12---5-5-5-5-5-5-5-5--12--12---x-x--12--12--5-5-5-5-5-5-5-5--| 
G#|-10--10---x-x--10--10---5-5-5-5-5-5-5-5--10--10---x-x--10--10--5-5-5-5-5-5-5-5--| 
D#|-8---8----x-x--8---8----5-5-5-5-5-5-5-5--8---8----x-x--8---8---5-5-5-5-4-4-4-4--| 

D#|--------------------------------------------------------------------------------| 
A#|--------------------------------------------------------------------------------| 
F#|--------------------------------------------------------------------------------| 
C#|-12--12---x-x--12--12---5-5-5-5-5-5-5-5--12--12---x-x--12--12--5-5-5-5-5-5-5-5--| 
G#|-10--10---x-x--10--10---5-5-5-5-5-5-5-5--10--10---x-x--10--10--5-5-5-5-5-5-5-5--| 
D#|-8---8----x-x--8---8----5-5-5-5-5-5-5-5--8---8----x-x--8---8---5-5-5-5-4-4-4-4--| 

D#|--------------------------------------------------------------------------------| 
A#|--------------------------------------------------------------------------------| 
F#|--------------------------------------------------------------------------------| 
C#|-12--12---x-x--12--12---5-5-5-5-5-5-5-5--12--12---x-x--12--12--5-5-5-5-5-5-5-5--| 
G#|-10--10---x-x--10--10---5-5-5-5-5-5-5-5--10--10---x-x--10--10--5-5-5-5-5-5-5-5--| 
D#|-8---8----x-x--8---8----5-5-5-5-5-5-5-5--8---8----x-x--8---8---5-5-5-5-4-4-4-4--| 


************************************ 

| x   Dead note 
| h   Hammer-on 
| /   Slide up 
| \   Slide down 

************************************ 
  

top 5 | knuckle puck
top rock'n roll
Outras músicas do artista letras do(a) Knuckle Puck
Top cifras »Top artistas »
Petaxxon Comunicação Online
Cifras.com.br - Melhor e mais completo site de cifras e tablaturas do Brasil
Mais de 1 milhão de acordes de músicas cadastradas desde 2003
As informações contidas no nosso site são colaborações de seus usuários e podem conter erros, sendo assim, não nos responsabilizamos sobre nenhuma destas.
close
menos
mais
close
Cor dos acordes:

Cor da letra:

 

save
close
close
 
redimensionar