Cifras e Tablaturas
Knuckle Puck

Knuckle Puck

Want Me Around

Cifras Cancelar Versão de Impressão
cifras

Knuckle Puck - Want Me Around

fixar na tela  
Exibindo: vídeo-aula ver clipes redimensionar
  
Intro 

D#|----------7---------------7---7---------7--------------| 
A#|------------6/7--9b--7---------------------6/7--9b--7~-| 
F#|-----6--9---------------9---9-----6--9-----------------| 
C#|-------------------------------------------------------| 
G#|-------------------------------------------------------| 
D#|-------------------------------------------------------| 

D#|----------7---------------7---7---------7---------------------| 
A#|------------6/7--9b--7---------------------6/7--9b--7~--5--7--| 
F#|-----6--9---------------9---9-----6--9------------------------| 
C#|--------------------------------------------------------------| 
G#|--------------------------------------------------------------| 
D#|--------------------------------------------------------------|x2 


Verse 

D#|-----------------------------------------------------------------| 
A#|---------5---------------5---------------5---------------5-------| 
F#|-------4---4-----------4---4-----------4---4-----------4---4-----| 
C#|-----2-------2~------2-------2~------2-------2~------2-------2~--| 
G#|---0---------------4---------------0---------------4-------------| 
D#|-----------------------------------------------------------------| 

Pre-Chorus 

D#|--------------------------------------------------| 
A#|----5-----5-----5-----5-----5-----5-----5-----5---| 
F#|---4-4---4-4---4-4---4-4---4-4---4-4---4-4---4-4--| 
C#|--2---2-2---2-2---2-2---2-2---2-2---2-2---2-2---2-| 
G#|-0-----0-----0-----0-----4-----4-----4-----4------| 
D#|--------------------------------------------------|x2 


Chorus 

Guitar 1: 

D#|---------------------------------------------------------------------------| 
A#|---------------------------------------------------------------------------| 
F#|---------------------6-6--6-6-6-6-9-9-9-9-9-9-9-9-9-9-4-4--4-4-4-4---------| 
C#|-7-7-7-7-7-7-7-7-7-7-6-6--6-6-6-6-9-9-9-9-9-9-9-9-9-9-4-4--4-4-4-4---------| 
G#|-7-7-7-7-7-7-7-7-7-7-4-4--4-4-4-4-7-7-7-7-7-7-7-7-7-7-2-2--2-2-2-2---------| 
D#|-5-5-5-5-5-5-5-5-5-5-------------------------------------------------------|x4 

Guitar 2: 

D#|----------7---------------7---7---------7---------------------| 
A#|------------6/7--9b--7---------------------6/7--9b--7~--5--7--| 
F#|-----6--9---------------9---9-----6--9------------------------| 
C#|--------------------------------------------------------------| 
G#|--------------------------------------------------------------| 
D#|--------------------------------------------------------------|x2 

Verse 

D#|-----------------------------------------------------------------| 
A#|---------5---------------5---------------5---------------5-------| 
F#|-------4---4-----------4---4-----------4---4-----------4---4-----| 
C#|-----2-------2~------2-------2~------2-------2~------2-------2~--| 
G#|---0---------------0---------------4---------------4-------------| 
D#|-----------------------------------------------------------------|x2 


Pre-Chorus 

D#|--------------------------------------------------| 
A#|----5-----5-----5-----5-----5-----5-----5-----5---| 
F#|---4-4---4-4---4-4---4-4---4-4---4-4---4-4---4-4--| 
C#|--2---2-2---2-2---2-2---2-2---2-2---2-2---2-2---2-| 
G#|-0-----0-----0-----0-----4-----4-----4-----4------| 
D#|--------------------------------------------------|x2 


Chorus 

Guitar 1: 

D#|---------------------------------------------------------------------------| 
A#|---------------------------------------------------------------------------| 
F#|---------------------6-6--6-6-6-6-9-9-9-9-9-9-9-9-9-9-4-4--4-4-4-4---------| 
C#|-7-7-7-7-7-7-7-7-7-7-6-6--6-6-6-6-9-9-9-9-9-9-9-9-9-9-4-4--4-4-4-4---------| 
G#|-7-7-7-7-7-7-7-7-7-7-4-4--4-4-4-4-7-7-7-7-7-7-7-7-7-7-2-2--2-2-2-2---------| 
D#|-5-5-5-5-5-5-5-5-5-5-------------------------------------------------------|x4 

Guitar 2: 

D#|----------7---------------7---7---------7---------------------| 
A#|------------6/7--9b--7---------------------6/7--9b--7~--5--7--| 
F#|-----6--9---------------9---9-----6--9------------------------| 
C#|--------------------------------------------------------------| 
G#|--------------------------------------------------------------| 
D#|--------------------------------------------------------------|x2 


Bridge 

D#|--------------------------------------------| 
A#|--------------------------------------------| 
F#|-------------9--9-9--9--4--4-4--4--4-4--4-4-| 
C#|--7--7-7--7--9--9-9--9--4--4-4--4--4-4--4-4-| 
G#|--7--7-7--7--7--7-7--7--2--2-2--2--2-2--2-2-| 
D#|--5--5-5--5---------------------------------|x3 


D#|----------------------------------------| 
A#|----------------------------------------| 
F#|-------------9--9-9--9--4-4-4-4-4-4-4-4-| 
C#|--7--7-7--7--9--9-9--9--4-4-4-4-4-4-4-4-| 
G#|--7--7-7--7--7--7-7--7--2-2-2-2-2-2-2-2-| 
D#|--5--5-5--5-----------------------------| 


Interlude 

D#|-------------------------------------------------| 
A#|-------------------------------------------------| 
F#|------------6-6--6-6-6--9-9--9-9-9--4-4--4-4-4---| 
C#|--7--7-7-7--6-6--6-6-6--9-9--9-9-9--4-4--4-4-4---| 
G#|--7--7-7-7--4-4--4-4-4--7-7--7-7-7--2-2--2-2-2---| 
D#|--5--5-5-5---------------------------------------|x2 


Chorus 

Guitar 1: 

D#|---------------------------------------------------------------------------| 
A#|---------------------------------------------------------------------------| 
F#|---------------------6-6--6-6-6-6-9-9-9-9-9-9-9-9-9-9-4-4--4-4-4-4---------| 
C#|-7-7-7-7-7-7-7-7-7-7-6-6--6-6-6-6-9-9-9-9-9-9-9-9-9-9-4-4--4-4-4-4---------| 
G#|-7-7-7-7-7-7-7-7-7-7-4-4--4-4-4-4-7-7-7-7-7-7-7-7-7-7-2-2--2-2-2-2---------| 
D#|-5-5-5-5-5-5-5-5-5-5-------------------------------------------------------|x6 

Guitar 2: 

D#|----------7---------------7---7---------7---------------------| 
A#|------------6/7--9b--7---------------------6/7--9b--7~--5--7--| 
F#|-----6--9---------------9---9-----6--9------------------------| 
C#|--------------------------------------------------------------| 
G#|--------------------------------------------------------------| 
D#|--------------------------------------------------------------|x4 



************************************ 

| b   Bend 
| /   Slide up 
| ~   Let Ring 

************************************ 
  

top 5 | knuckle puck
top rock'n roll
Outras músicas do artista letras do(a) Knuckle Puck
Top cifras »Top artistas »
Petaxxon Comunicação Online
Cifras.com.br - Melhor e mais completo site de cifras e tablaturas do Brasil
Mais de 1 milhão de acordes de músicas cadastradas desde 2003
As informações contidas no nosso site são colaborações de seus usuários e podem conter erros, sendo assim, não nos responsabilizamos sobre nenhuma destas.
close
menos
mais
close
Cor dos acordes:

Cor da letra:

 

save
close
close
 
redimensionar