Cifras e Tablaturas
Kraftklub

Kraftklub

Eure Mädchen

Cifras Cancelar Versão de Impressão
cifras

Kraftklub - Eure Mädchen

fixar na tela  
Exibindo: vídeo-aula ver clipes redimensionar
  
(Intro) 

e |--------------|  
B |--------------|  
G |--------------|  
D |-9--10--12--9-|  
A |-9--10--12--9-|  
E |-7--8---10--7-|  

(Verse) 

e ||  ----------------------  ||                        e ||  ---------------------  || 
B ||  ----------------------  ||                        B ||  ---------------------  || 
G ||. -----9---------------- .||                        G ||. --------------------- .|| 
D ||. -----9--9--10--12--9-- .||  x7                    D ||. --------------------- .|| 
A ||  -----7--9--10--12--9--  ||                        A ||  ---------------------  || 
E ||  --0-----7--8---10--7--  ||         (2nd Guitar)   E ||  -0-0-0-0-0-0-0-0-0-0-  || 

(Refrain?/Chorus?) 

e ||  -----------------------  || 
B ||  -----------------------  || 
G ||. ---9-9-9-----------12-- .|| 
D ||. ---9-9-9--9-10-12--12-- .||    x4 
A ||  ---7-7-7--9-10-12--10--  || 
E ||  ----------7-8--10------  || 

(Verse) 

e ||  ----------------------  ||         
B ||  ----------------------  ||           
G ||. -----9---------------- .||            
D ||. -----9--9--10--12--9-- .||            
A ||  -----7--9--10--12--9--  ||           
E ||  --0-----7--8---10--7--  ||          


(Solo) 

e | --------------------------------------------------------------------------------------| 
B | --------------------------------------------------------------------------------------| 
G | --14--12--14--12--14--12--14--12--14--16--14--12------------------------------12--16--| 
D | --------------------------------------------------14--12--14--12--14--12--14----------| 
A | --------------------------------------------------------------------------------------| 
E | --------------------------------------------------------------------------------------| 


e | --------------------------------------------------------------------------------------| 
B | --------------------------------------------------------------------------------------| 
G | --14--12--14--12--14--12--14--12--14--16--14--12------------------------------12--16--| 
D | --------------------------------------------------14--12--14--12--14--12--14----------| 
A | --------------------------------------------------------------------------------------| 
E | --------------------------------------------------------------------------------------| 


e | --------------------------------------------------------------------------------------| 
B | --------------------------------------------------------------------------------------| 
G | --14--12--14--12--14--12--14--12--14--16--14--12------------------------------12--16--| 
D | --------------------------------------------------14--12--14--12--14--12--14----------| 
A | --------------------------------------------------------------------------------------| 
E | --------------------------------------------------------------------------------------| 


e | --------------------------------------------------------------------------------------| 
B | --------------------------------------------------------------------------------------| 
G | --14--12--14--12--14--12--14--12--14--16--14--12------------------------------12--16--| 
D | --------------------------------------------------14--12--14--12--14--12--14----------| 
A | --------------------------------------------------------------------------------------| 
E | --------------------------------------------------------------------------------------| 


e | -----------------------------------| 
B | -----------------------------------| 
G | --14--12--14--12--14--12--14--15b--| 
D | -----------------------------------| 
A | -----------------------------------| 
E | -----------------------------------|  

Song from: Kraftklub 

Made by: Dennis Fährmann 
Edited by: / 



************************************ 

| b  Bend 
  

************************************ 
  

cifra enviadasem correções
enviado porenviada por:carlluz
top 5 | kraftklub
top rap/hip hop
Outras músicas do artista letras do(a) Kraftklub
Top cifras »Top artistas »
Petaxxon Comunicação Online
Cifras.com.br - Melhor e mais completo site de cifras e tablaturas do Brasil
Mais de 1 milhão de acordes de músicas cadastradas desde 2003
As informações contidas no nosso site são colaborações de seus usuários e podem conter erros, sendo assim, não nos responsabilizamos sobre nenhuma destas.
close
menos
mais
close
Cor dos acordes:

Cor da letra:

 

save
close
close
 
redimensionar