Cifras e Tablaturas
Kreator

Kreator

Lost

Ano: 2003
Album : Cause for Conflict

Cifras Cancelar Versão de Impressão Print

Kreator - Lost

Tom:

  • 0:00 / 0:00
  			------------------------------------|| 
------------------------------------|| 
------------------------------------|| 
------------------------------------|| 
-7-7-7-7--7-7-7-7--7-7-7-7--7-7-7-7-|| 
------------------------------------|| 
 
guitar 2 
 
-----|-------|-------|-------|| 
-----|-------|-------|-------|| 
-----|-------|-------|-------|| 
-2---|---3---|---2---|---3---|| 
-2---|---3---|---2---|---3---|| 
-0---|---1---|---0---|---1---|| 
 
INTRO PART 2 
 
(play 4 times) 
-----------------|-----------------|| 
-----------------|-----------------|| 
-----------------|-----------------|| 
-5-------------5-|---5-------------|| 
-7-------------7-|---7-------------|| 
---0-0-0-0-0-0---|-0---0-0-0-0-0-0-|| 
 
VERSE 
 
 
----------------------------|----------------------------| 
----------------------------|----------------------------| 
----------------------------|----------------------------| 
----------------------------|----------------------------| 
----------------------------|----------------------------| 
-0-0-0--0-0-0--0-0-0--0-0-0-|-0-0-0--0-0-0--0-0-0--0-0-0-| 
 
----------------------------|----------------------------| 
----------------------------|----------------------------| 
----------------------------|----------------------------| 
----------------------------|----------------------------| 
----------------------------|----------------------------| 
-3-3-3--3-3-3--3-3-3--3-3-3-|-2-2-2--2-2-2--2-2-2--2-2-2-| 
 
----------------------------|----------------------------| 
----------------------------|----------------------------| 
----------------------------|----------------------------| 
----------------------------|----------------------------| 
----------------------------|----------------------------| 
-0-0-0--0-0-0--0-0-0--0-0-0-|-0-0-0--0-0-0--0-0-0--0-0-0-| 
 
----------------------------|----------------------------| 
----------------------------|----------------------------| 
----------------------------|----------------------------| 
----------------------------|----------------------------| 
----------------------------|----------------------------| 
-3-3-3--3-3-3--3-3-3--3-3-3-|-7-7-7--7-7-7--7-7-7--7-7-7-| 
 
----------------------------|----------------------------| 
----------------------------|----------------------------| 
----------------------------|----------------------------| 
----------------------------|----------------------------| 
----------------------------|----------------------------| 
-0-0-0--0-0-0--0-0-0--0-0-0-|-0-0-0--0-0-0--0-0-0--0-0-0-| 
 
----------------------------|----------------------------| 
----------------------------|----------------------------| 
----------------------------|----------------------------| 
----------------------------|----------------------------| 
----------------------------|----------------------------| 
-3-3-3--3-3-3--3-3-3--3-3-3-|-5-5-5--5-5-5--5-5-5--5-5-5-| 
 
 
Chorus 
 
(play 2 times) 
 
hold---- hold---- 
-------|----------------|----------|----------------|| 
-------|----------------|----------|----------------|| 
-------|----------------|----------|----------------|| 
-2--3--|--(3)--3--3--3--|-2--5--3--|--(3)--3--3--3--|| 
-2--3--|--(3)--3--3--3--|-2--5--3--|--(3)--3--3--3--|| 
-0--1--|--(1)--1--1--1--|-0--3--1--|--(1)--1--1--1--|| 
 
 
play INTRO PART 2 twice 
 
play verse 
 
play Chorus, then play this chord and hold for 8 measures... 
 
-----| 
-----| 
-----| 
--2--| 
--2--| 
--0--| 
 
...starting at fifth measure, play INTRO PART 1 
 
 
BRIDGE PART 1 
 
(play 2 times) 
 
------------------------------------|| 
-0-0-0-0--0-0-0-0--0-0-0-0--0-0-0-0-|| 
-0-0-0-0--0-0-0-0--0-0-0-0--0-0-0-0-|| 
------------------------------------|| 
------------------------------------|| 
------------------------------------|| 
 
BRIDGE PART 2 
 
(play 2 times) 
 
---------------------------------|---------------------------------| 
---------------------------------|---------------------------------| 
---------------------------------|---------------------------------| 
----------3-----------3-------3--|----------3-----------3-------3--| 
----------3-----------3-------3--|----------3-----------3-------3--| 
-0-0-0-0--1--0-0-0-0--1--0-0--1--|-0-0-0-0--1--0-0-0-0--1--0-0--1--| 
 
---------------------------------|-------------------------| 
---------------------------------|-------------------------| 
---------------------------------|-------------------------| 
----------3-----------3-------3--|----------3-----------5--| 
----------3-----------3-------3--|----------3-----------5--| 
-0-0-0-0--1--0-0-0-0--1--0-0--1--|-0-0-0-0--1--0-0-0-0--3--| 
 
---------------------------------|---------------------------------| 
---------------------------------|---------------------------------| 
---------------------------------|---------------------------------| 
----------3-----------3-------3--|----------3-----------3-------3--| 
----------3-----------3-------3--|----------3-----------3-------3--| 
-0-0-0-0--1--0-0-0-0--1--0-0--1--|-0-0-0-0--1--0-0-0-0--1--0-0--1--| 
 
---------------------------------|----------------------------|| 
---------------------------------|----------------------------|| 
---------------------------------|----------------------------|| 
----------3-----------3-------3--|----------3-----------10--9-|| 
----------3-----------3-------3--|----------3-----------10--9-|| 
-0-0-0-0--1--0-0-0-0--1--0-0--1--|-0-0-0-0--1--0-0-0-0--8---7-|| 
 
 
SOLO RHYTHM 
* (solo starts here) 
 
-----|----------------------|-----|---------------------| 
-----|----------------------|-----|---------------------| 
-----|----------------------|-----|---------------------| 
--2--|--------5---4---------|--2--|--------5---7--------| 
--2--|--------5---4---------|--2--|--------5---7--------| 
--0--|--0--2--3---2---0--3--|--0--|--0--2--3---5--3--2--| 
 
-----|----------------------|-----|---------------------|| 
-----|----------------------|-----|---------------------|| 
-----|----------------------|-----|---------------------|| 
--2--|--------5---4---------|--2--|--------5---7--------|| 
--2--|--------5---4---------|--2--|--------5---7--------|| 
--0--|--0--2--3---2---0--3--|--0--|--0--2--3---5--------|| 
 
 
SOLO * 
Bend 
-------------------|-----------------------------| 
---------------12--|-------------------------^---| 
------------9------|-------------12--14--(14)_16-| 
---------9---------|-----12--14------------------| 
--7--10------------|--7--------------------------| 
-------------------|-----------------------------| 
 
Bend Bend 
-----------------------------|-----^--------^--------15-| 
-----^--------^--------^-----|-(15)_17--(15)_17--17-----| 
-(14)_16--(14)_16--(14)_16---|--------------------------| 
-----------------------------|--------------------------| 
-----------------------------|--------------------------| 
-----------------------------|--------------------------| 
 
Bend Release H P 
^ ^ 
-(15)_17_(15)--15-|--15--19--15-----------------------| 
------------------|--------------17-------------------| 
------------------|-----------------17-------------16-| 
------------------|--------------------17--14--14-----| 
------------------|-----------------------------------| 
------------------|-----------------------------------| 
 
Slide Slide 
------15--19--17--15--14-----------------------------------|| 
--17----------------------15-------------------------------|| 
------------------------------14--12--11-------------------|| 
-----------------------------------------14--12_14---------|| 
-----------------------------------------------------12_10-|| 
-----------------------------------------------------------|| 
 
 
POST SOLO 
--------------------------------------|-------------------------------------| 
--------------------------------------|-------------------------------------| 
--------------------------------------|-------------------------------------| 
-9-10---------------------------------|-------------------------------------| 
-7-8----------------------------------|---5-3-------------------------------| 
-------1-1-1-1--1-1-1-1--1-1-1-1--1-1-|-0-3-1--1-1-1-1--1-1-1-1--1-1-1-1--1-| 
 
--------------------------------------|-------------------------------------| 
--------------------------------------|-------------------------------------| 
--------------------------------------|-------------------------------------| 
--------------------------------------|-------------------------------------| 
-2--3---------------------------------|---5-3-------------------------------| 
-0--1--1-1-1-1--1-1-1-1--1-1-1-1--1-1-|-0-3-1--1-1-1-1--1-1-1-1--1-1-1-1--1-| 
 
 
ALTERNATE Chorus 
 
hold---- hold---- 
-------|----------------|----------|----------------|| 
-------|----------------|----------|----------------|| 
-------|----------------|----------|----------------|| 
-2--3--|--(3)--3--3--3--|-2--5--3--|--(3)--3--3--3--|| 
-2--3--|--(3)--3--3--3--|-2--5--3--|--(3)--3--3--3--|| 
-0--1--|--(1)--1--1--1--|-0--3--1--|--(1)--1--1--1--|| 
 
hold---- hold---- 
-------|----------------|----------|--------------------|| 
-------|----------------|----------|--------------------|| 
-------|----------------|----------|--------------------|| 
-2--3--|--(3)--3--3--3--|-2--5--3--|--(3)-----------9---|| 
-2--3--|--(3)--3--3--3--|-2--5--3--|--(3)-----------7---|| 
-0--1--|--(1)--1--1--1--|-0--3--1--|--(1)--0-3-2-0----0-|| 
 
 
OUTRO PART 1 
 
guitar 1 (play 4 times) 
 
---------------------------------------------------------|| 
---------------------------------------------------------|| 
--10------------10------------10------------10-----------|| 
-----10--9--10-----10--9--10-----10--9--10-----10--9--10-|| 
---------------------------------------------------------|| 
---------------------------------------------------------|| 
 
guitar 2 
 
------------|---------------|------------|-------|| 
------------|---------------|------------|-------|| 
--5---5-----|--4------------|--3---5-----|---2---|| 
--5---5-----|--4---4--5--4--|--3---5-----|---2---|| 
--3---3--3--|--2---2--3--2--|--1---3--3--|---0---|| 
------------|---------------|------------|-------|| 
 
 
OUTRO PART 2 
 
guitar 1 (play 3 times, then final two notes) 
hold 
----------------------------------------------------------| ----------|| 
----------------------------------------------------------| ----------|| 
--12------------12------------12------------12------------| --12--14--|| 
-----12--11--12----12--11--12----12--11--12----12--11--12-| ----------|| 
----------------------------------------------------------| ----------|| 
----------------------------------------------------------| ----------|| 
 
guitar 2 
hold 
------------|---------------|------------|-------|| 
------------|---------------|------------|-------|| 
--5---5-----|--9------------|--3---5-----|---2---|| 
--5---5-----|--9---4--5--4--|--3---5-----|---2---|| 
--3---3--3--|--7---2--3--2--|--1---3--3--|---0---|| 
------------|---------------|------------|-------|| 
 
 
 

    	

enviado porenviado por: matrizarrojito
cifra enviadaCorrigida por: sem correções
logo top cifrasComente
ico música do artistaMúsicas deste artista
ico curtiuCurtiu?
ico destaqueDestaque
Petaxxon Comunicação Online

Cifras.com.br - Melhor e mais completo site de cifras e tablaturas do Brasil Mais de 1 milhão de acordes de músicas cadastradas desde 2003
As informações contidas no nosso site são colaborações de seus usuários e podem conter erros, sendo assim, não nos responsabilizamos sobre nenhuma destas.

close
menos
mais
close
Cor dos acordes:

Cor da letra:

close
Alinhar acordes a direita Alinhar acordes a esquerda Alinhar acordes em baixo Alinhar acordes no topo
close
  Mostrar todos os acordes Esconder acordes muito fáceis Esconder acordes fáceis Esconder acordes intermediários
redimensionar
glossário