Cifras e Tablaturas
Kurt Cobain

Kurt Cobain

She Only Lies

Cifras Cancelar Versão de Impressão
cifras

Kurt Cobain - She Only Lies

fixar na tela  
Exibindo: vídeo-aula ver clipes redimensionar

Tom:

  
e|--------------------------------| 
B|1-1-1---------------------------| 
G|-------0--0-0-------------------| 
D|--------------0--0-0--1-1--3-3--|  
A|-3-3-3--------------------------| 
D|--------55-5---00-0----1----3---|   x6 

e|---------------------------------------------| 
B|---------------------------------------------| 
G|-----3----3----------------------------------| 
D|------------------------5--5-3-5-------------| 
A|1-1-1-1-1--1-1-1-0--------------3-4-5--------| 
D|-------------------6-5-5--------------5-6-5--|   x2 

e|-----------------------------------------------------------------| 
B|-----------------------------------------------------------------| 
G|-----------------------------------------------------------------| 
D|------------------------------------1----------------------------| 
A|-----------------------------------------------------------------| 
D|1111-11-3333-33-5555-55-5555-55-1111-11-3333-33-/8----7--/----5--|    x1 
 
  

top 5 | kurt cobain
top rock alternativo
Outras músicas do artista letras do(a) Kurt Cobain
Top cifras »Top artistas »
Petaxxon Comunicação Online
Cifras.com.br - Melhor e mais completo site de cifras e tablaturas do Brasil
Mais de 1 milhão de acordes de músicas cadastradas desde 2003
As informações contidas no nosso site são colaborações de seus usuários e podem conter erros, sendo assim, não nos responsabilizamos sobre nenhuma destas.
close
menos
mais
close
Cor dos acordes:

Cor da letra:

 

save
close
close
 
redimensionar