Cifras e Tablaturas
Kurt Cobain

Kurt Cobain

The Yodel Song

Cifras Cancelar Versão de Impressão
cifras

Kurt Cobain - The Yodel Song

fixar na tela  
Exibindo: vídeo-aula ver clipes redimensionar

Tom:

  
Verse 
e|----------4-4---------------4-4--------------------------------------------| 
B|--2-2-2---6-6---2-/-5-5-5---6-6--------------------------------------------| 
G|--4-4-4---6-6---4-/-7-7-7---6-6--------------------------------------------| 
D|--4-4-4---------4-/-7-7-7--------------------------------------------------| 
A|---------------------------------------------------------------------------| 
E|---------------------------------------------------------------------------| 

Chorus 
e|--0-0-0-0-0-0-0------------------------------------------------------------| 
B|--2-2-2-2-2-2-2---3-3---0-0---2-2-2-2-2-2-2-2-2-2--------------------------| 
G|--2-2-2-2-2-2-2---5-5---2-2---3-3-3-3-3-3-3-3-3-3--------------------------| 
D|------------------5-5---2-2---3-3-3-3-3-3-3-3-3-3--------------------------| 
A|---------------------------------------------------------------------------| 
E|---------------------------------------------------------------------------| 
 

/ = slide up 
  

top 5 | kurt cobain
top rock alternativo
Outras músicas do artista letras do(a) Kurt Cobain
Top cifras »Top artistas »
Petaxxon Comunicação Online
Cifras.com.br - Melhor e mais completo site de cifras e tablaturas do Brasil
Mais de 1 milhão de acordes de músicas cadastradas desde 2003
As informações contidas no nosso site são colaborações de seus usuários e podem conter erros, sendo assim, não nos responsabilizamos sobre nenhuma destas.
close
menos
mais
close
Cor dos acordes:

Cor da letra:

 

save
close
close
 
redimensionar