Cifras e Tablaturas
Kurt Vile

Kurt Vile

Stand Inside

Cifras Cancelar Versão de Impressão
cifras

Kurt Vile - Stand Inside

fixar na tela  
Exibindo: vídeo-aula ver clipes redimensionar

Tom:

  
Intro 
e|--------------------------------------------------------------------------| 
B|------0-0---0--------0-0--0-----0-0--0-----0-0----------------------------| 
G|----0-----0---------0---0------0---0------0---0---------------------------| x2 
D|--2----2---2--2----2--2--2-2--2--2--2-2--2--2--2--------------------------| 
A|-0---------------0-----------0----------0---------------------------------| 
E|--------------------------------------------------------------------------| 

e|----------------------------------------------------------------------------| 
B|---0--0--0--0-----0-----------0----0-0--0----0-0--0----0-0--0----0-0--0-----| 
G|--0--0--0--0-0---0-0---0--0--0----0---0-----0---0-----0---0-----0---0-------| 
D|-2--0---------0-----0-0--0--0--0-2--2--2-2-2--2--2-2-2--2--2-2-2--2--2-2----| 
A|-------0--2-----2-------3--2----0---------0---------0---------0-------------| 
E|---------------------3------------------------------------------------------| 


Verse 
e|----------------------------------------------------------------------------| 
B|---0--0--0--0-----0-----------0----0-0--0----0-0--0----0-0--0----0-0--0-----| 
G|--0--0--0--0-0---0-0---0--0--0----0---0-----0---0-----0---0-----0---0-------| 
D|-2--0---------0-----0-0--0--0--0-2--2--2-2-2--2--2-2-2--2--2-2-2--2--2-2----| 
A|-------0--2-----2-------3--2----0---------0---------0---------0-------------| 
E|---------------------3------------------------------------------------------| 

1. Don't talk to me     just walk to me        under   -   stand 
2. That's my good girl my whole world turnin on the couch 
4. and if i'm not dead north country or scarborough faded 

e|-----------------------------------------------------------------------------| 
B|---0--0--0--0-----0-------2--2--2---2--2---2--2--2--2---2--2--2--2---2--2--2-| 
G|--0--0--0--0-0---0-0-----0-0-----0-------0-----0------0-----0------0-----0---| 
D|--------------0-----0-0-2---2--2---2-2----2--2--2--2---2--2--2-2----2--2--2-2| 
A|-0--0--3--2-----2---------0-----------(0)----------(0)----------(0)----------| 
E|-----------------------------------------------------------------------------| 

1. Sure I'm your Ma - an /    do      what      I     can 
2. (skip this) 
4. every window, everywhere i go 

e|---------------------------------------------------------------------------| 
B|---3-0------1-0-------0-0--0-----0-0--0-----0-0--0----0-0--0---------------| 
G|------0--------0-----0---0------0---0------0---0-----0---0-----------------| 
D|---2---2--------2--2---2--2-2--2--2--2-2--2--2--2-2-2--2--2-2--------------| 
A|-0----------0-----0-----------0----------0---------0-----------------------| 
E|---------------------------------------------------------------------------| 

1. but don't stand by my side                                  stand 
2. close that cute mouth                                       and 
4. you spy on me, keep me un-lonely 

Chorus 
                                                                 (repeat measure 1x after 3rd Chorus) 
e|-------------------------------------|--0---------------------|----------------------| 
B|---0----------------0----0------0---0|------3-------3--1---0--|---------------0--0---| 
G|--0-0----------2^(4)--0----2^(4)--0--|*-------2----2--------0-|--------2^(4)p0-0--0--| 
D|-----0--0h2-(2)---------0----------0-|*--(0)----0-0--0--(0)--0|-0-0h2-2---------0--0-| 
A|-3----3------------------------------|--0--------0-----3------|3---------------------| 
E|-------------------------------------|------------------------|----------------------| 

1. inside 
2. kiss me                                                                 like 
                                        3. I love you 

after 1st/3rd Chorus: 
e|---------------------------------------------------------------------| 
B|---0--0--0--0----------0----0-0--0----0-0--0----0-0--0----0-0--0-----| 
G|--0--0--0--0----0--0--0----0---0-----0---0-----0---0-----0---0-------| 
D|-2--0----------0--0--0--0-2--2--2-2-2--2--2-2-2--2--2-2-2--2--2-2----| 
A|-------0--2-----3--2-----0---------0---------0---------0-------------| 
E|--------------3------------------------------------------------------| 


after 2nd/4th Chorus: 
e|-(0)----------------(0)-------------------------| 
B|-(0)---0----0--0----(0)---0----(0)--0-----------| 
G|-(0)--0------0------(0)--0-----(0)-0-0----------| x2 
D|-(2)-2--2-----2-2---(2)-2--2---(2)----2---------| 
A|-(0)----------------(0)--------(3)--------------| 
E|-(0)----------------(0)--------(3)--------------| 

all the pretty things you see outside, i'm a-gonna make you satisfied 
all the silly things inside my mind, i'm a-gonna make you satisfied 

e|-(0)--------(0)--------(0)-------------------------| 
B|-(0)---0-----0---0-----(0)---0----(0)--0-----------| 
G|-(0)--0-----(0)-0-0----(0)--0-----(0)-0-0----------| x2 
D|-(2)-2--2---(2)----2---(2)-2--2---(2)----2---------| 
A|-(0)--------(3)--------(0)--------(3)--------------| 
E|-(0)--------(3)--------(0)--------(3)--------------| 

I'm a-gonna pick on my guitar, baby till we fill that fruit jar 

e|-(0)----------------(0)------------------| 
B|-(0)---0----0--0----(0)---0--0-----------| 
G|-(0)--0------0------(0)--0----0-0--------| x2 
D|-(2)-2--2-----2-2---(2)-2--2---2---------| 
A|-(0)----------------(0)------------------| 
E|-(0)----------------(0)------------------| 

we gonna live in a house together with me on the couch with my guitar sayin 

e|-(0)----------------(0)-------------------| 
B|-(0)---0------0-----(0)---0--0------------| 
G|-(0)--0------0-0----(0)--0----0-0--------*| 
D|-(2)-2--2-------2---(2)-2--2---2---------*| 
A|-(3)----------------(3)-------------------| 
E|-(3)----------------(3)-------------------| 

oh my god I love you              (first time through to coda/Chorus) 
                                  (second time through to outro) 

Outro 
e|--------------------------------------------------------------------------| 
B|------0-0---0--------0-0--0-----0-0--0-----0-0----------------------------| 
G|----0-----0---------0---0------0---0------0---0---------------------------| x2 
D|--2----2---2--2----2--2--2-2--2--2--2-2--2--2--2--------------------------| 
A|-0---------------0-----------0----------0---------------------------------| 
E|--------------------------------------------------------------------------| 

e|----------------------------------------------------------------------------| 
B|---0--0--0--0-----0-----------0----0-0--0----0-0--0----0-0--0----0-0--0-----| 
G|--0--0--0--0-0---0-0---0--0--0----0---0-----0---0-----0---0-----0---0-------| 
D|-2--0---------0-----0-0--0--0--0-2--2--2-2-2--2--2-2-2--2--2-2-2--2--2-2----| 
A|-------0--2-----2-------3--2----0---------0---------0---------0-------------| 
E|---------------------3------------------------------------------------------| 



************************************ 

| (n)  Ghost note 
| *    Natural harmonic 
| h    Hammer-on 
  

************************************ 
  

top 5 | kurt vile
top rock alternativo
Outras músicas do artista letras do(a) Kurt Vile
Top cifras »Top artistas »
Petaxxon Comunicação Online
Cifras.com.br - Melhor e mais completo site de cifras e tablaturas do Brasil
Mais de 1 milhão de acordes de músicas cadastradas desde 2003
As informações contidas no nosso site são colaborações de seus usuários e podem conter erros, sendo assim, não nos responsabilizamos sobre nenhuma destas.
close
menos
mais
close
Cor dos acordes:

Cor da letra:

 

save
close
close
 
redimensionar