Cifras e Tablaturas
Lacey Sturm

Lacey Sturm

Impossible

Cifras Cancelar Versão de Impressão
cifras

Lacey Sturm - Impossible

fixar na tela  
Exibindo: vídeo-aula ver clipes redimensionar

Tom:

  
Intro 
D#|---------------------------7--------------------------------7--------------| 
A#|-----8-------8-------8-------7--------8-------8-------8-------7------------| 
F#|-------------------------------7--------------------------------7----------| 
C#|---9---9---9---9---9---9------------9---9---9---9---9---9------------------| 
G#|-7-------7-------7-------7--------7-------7-------7-------7----------------| 
C#|---------------------------------------------------------------------------| 

D#|---------------------------7-------------------------------7---------------| 
A#|-----8-------8-------8-------7--------8-------8-------8----7---------------| 
F#|-------------------------------7---------------------------7---------------| 
C#|---9---9---9---9---9---9------------9---9---9---9---9---9--7---------------| 
G#|-7-------7-------7-------7--------7-------7-------7--------7---------------| 
C#|---------------------------------------------------------------------------| 

Verse 
"I can't fly, but I..." 
D#|---------------------------------------------------------------------------| 
A#|---------------------------------------------------------------------------| 
F#|---------------------------------------------------------------------------| 
C#|-2-0-2-0-2-------2-0-2-0-2---------2-2-2-0-2-2-2-0-2-2-2-0-5-5-7-7---------| 
G#|-2-0-2-0-2-2-0---2-0-2-0-2-2-0---0-2-2-2-0-2-2-2-0-2-2-2-0-5-5-7-7---------| 
C#|-2-0-2-0-2-----0-2-0-2-0-2-----5---2-2-2-0-2-2-2-0-2-2-2-0-5-5-7-7---------| 

"pouring out like I am endless..." 
D#|---------------------------------------------------------------------------| 
A#|-----------------------5---5---5--3-3-3-5--5---5---5--3-3-3-5--------------| 
F#|---------------------------------------------------------------------------| 
C#|-2-2-2-0-2-2-2-0-------2-0-2-0-2-----------2-0-2-0-2-----------------------| 
G#|-2-2-2-0-2-2-2-0-------2-0-2-0-2-----------2-0-2-0-2-----------------------| 
C#|-2-2-2-0-2-2-2-0-14\2--2-0-2-0-2-----------2-0-2-0-2-----------------------| 

Guitar drops out until: 

"I can barely breathe..." 
D#|---------------------------------------------------------------------------| 
A#|---------------------------------------------------------------------------| 
F#|---------------------------------------------------------------------------| 
C#|-2-2-2---2-2-2---2-2-2---5-5-5-5--2-2-2---2-2-2---2-2-2--------------------| 
G#|-------5-------5-------5----------------5-------5-------5--3-2-------------| 
C#|----------------------------------------------------------------5-4--------| 


Pre-Chorus 
D#|---------------------------------------------------------------------------| 
A#|---------------------------------------------------------------------------| 
F#|---------------------------------------------------------------------------| 
C#|-2-2-2-2-4-4-4-4-5-5-5-5-7-7-7-7-2-2-2-2-4-4-4-4-10-10-10-9----------------| 
G#|-3-3-3-3-3-3-3-3-3-3-3-3-3-3-3-3-0-0-0-0-0-0-0-0-0--0--0--0----------------| 
C#|---------------------------------------------------------------------------| 

Chorus 
D#|-------------------------------------------------------------------------------------------| 
A#|-------------------------------------------------------------------------------------------| 
F#|-5-5--5-5-5--------------------------------5-5--5-5-5--------------------------------------| 
C#|-5-5--5-5-5--2-2--2-2--5-5--5-5--0-0--0-0--5-5--5-5-5--2-2--2-2--5-5--5-5--0-0-0-0-0-0-0-0-| 
G#|-3-3--3-3-3--2-2--2-2--5-5--5-5--0-0--0-0--3-3--3-3-3--2-2--2-2--5-5--5-5--0-0-0-0-0-0-0-0-| 
C#|-------------2-2--2-2--5-5--5-5--0-0--0-0--------------2-2--2-2--5-5--5-5--0-0-0-0-0-0-0-0-| 

Post-Chorus 
D#|---------------------------------------------------------------------------| 
A#|--5---5---5--3-3-3-5--5---5---5--3-3-3-5-----------------------------------| 
F#|---------------------------------------------------------------------------| 
C#|--2-0-2-0-2-----------2-0-2-0-2--------------------------------------------| 
G#|--2-0-2-0-2-----------2-0-2-0-2--------------------------------------------| 
C#|--2-0-2-0-2-----------2-0-2-0-2--------------------------------------------| 

Verse 
D#|---------------------------------------------------------------------------| 
A#|--17b-17b-17b--------------------------------------------------------------| 
F#|---------------------------------------------------------------------------| 
C#|--------------pickscrape--2-0-2-0-2----------2-0-2-0-2---------------------| 
G#|--------------pickscrape--2-0-2-0-2-----5----2-0-2-0-2--3-2----------------| 
C#|--------------pickscrape--2-0-2-0-2-5-0---5--2-0-2-0-2------5-4------------| 

Pre-Chorus 
D#|---------------------------------------------------------------------------| 
A#|---------------------------------------------------------------------------| 
F#|---------------------------------------------------------------------------| 
C#|-2-2-2-2-4-4-4-4-5-5-5-5-7-7-7-7-2-2-2-2-4-4-4-4-10-10-10-9----------------| 
G#|-3-3-3-3-3-3-3-3-3-3-3-3-3-3-3-3-0-0-0-0-0-0-0-0-0--0--0--0----------------| 
C#|---------------------------------------------------------------------------| 

Chorus 
D#|-------------------------------------------------------------------------------------------| 
A#|-------------------------------------------------------------------------------------------| 
F#|-5-5--5-5-5--------------------------------5-5--5-5-5--------------------------------------| 
C#|-5-5--5-5-5--2-2--2-2--5-5--5-5--0-0--0-0--5-5--5-5-5--2-2--2-2--5-5--5-5--0-0-0-0-0-0-0-0-| 
G#|-3-3--3-3-3--2-2--2-2--5-5--5-5--0-0--0-0--3-3--3-3-3--2-2--2-2--5-5--5-5--0-0-0-0-0-0-0-0-| 
C#|-------------2-2--2-2--5-5--5-5--0-0--0-0--------------2-2--2-2--5-5--5-5--0-0-0-0-0-0-0-0-| 

D#|---------------------------------------------------------------------------| 
A#|---------------------------------------------------------------------------| 
F#|-5-5-5-5-5-5-5-5-----------------------------------------------------------| 
C#|-5-5-5-5-5-5-5-5--2-2-2-2-2-2-2-2--5-5-5-5-5-5-5-5--0-0-0-0-0-0-0-0--------| 
G#|-3-3-3-3-3-3-3-3--2-2-2-2-2-2-2-2--5-5-5-5-5-5-5-5--0-0-0-0-0-0-0-0--------| 
C#|------------------2-2-2-2-2-2-2-2--5-5-5-5-5-5-5-5--0-0-0-0-0-0-0-0--------| 

D#|---------------------------------------------------------------------------| 
A#|---------------------------------------------------------------------------| 
F#|-5-5-5-5-5-5-5-5-----------------------------------------------------------| 
C#|-5-5-5-5-5-5-5-5--2-2-2-2-2-2-2-2--5-5-5-5-5-5-5-5--0-0-0-0-0-0-0-0--------| 
G#|-3-3-3-3-3-3-3-3--2-2-2-2-2-2-2-2--5-5-5-5-5-5-5-5--0-0-0-0-0-0-0-0--------| 
C#|------------------2-2-2-2-2-2-2-2--5-5-5-5-5-5-5-5--0-0-0-0-0-0-0-0--------| 

Solo 
(Whammy one octave version (Notes played with Whammy on are in brackets)) 
D#|---------------------------------------------------------------------------| 
A#|------------------(3)-(5)-(8)-(5)-------------12--12-10-12-10--------------| 
F#|-8b9-8b9-8b9--(4)-----------------9-(9)-9-(9)-----------------12-----------| 
C#|---------------------------------------------------------------------------| 
G#|---------------------------------------------------------------------------| 
C#|---------------------------------------------------------------------------| 

(Non-Whammy version) 
D#|-----------------------------------12---12---------------------------------| 
A#|------------------15-17-20-17---------------12--12-10-12-10----------------| 
F#|-8b9-8b9-8b9--16-----------------9----9---------------------12-------------| 
C#|---------------------------------------------------------------------------| 
G#|---------------------------------------------------------------------------| 
C#|---------------------------------------------------------------------------| 

Bridge 
D#|---------------------------------------------------------------------------| 
A#|---------------------------------------------------------------------------| 
F#|-5-5-5-5--5-5-5-5--------------------5-5-5-5--5-5-5-5----------------------| 
C#|-5-5-5-5--5-5-5-5---5-5-5-5-7-7-7-7--5-5-5-5--5-5-5-5--5-5-5-5-7-7-7-7-----| 
G#|-3-3-3-3--3-3-3-3---5-5-5-5-5-5-5-5--3-3-3-3--3-3-3-3--5-5-5-5-5-5-5-5-----| 
C#|--------------------5-5-5-5-4-4-4-4--------------------5-5-5-5-4-4-4-4-----| 

D#|---------------------------------------------------------------------------| 
A#|---------------------------------------------------------------------------| 
F#|-5-5-5-5--5-5-5-5----------------------------------------------------------| 
C#|-5-5-5-5--5-5-5-5---5-5-5-5--7---------------------------------------------| 
G#|-3-3-3-3--3-3-3-3---5-5-5-5--5---------------------------------------------| 
C#|--------------------5-5-5-5--4---------------------------------------------| 

D#|-------------------------------------------------------------------------------------------| 
A#|-------------------------------------------------------------------------------------------| 
F#|-5-5--5-5-5--------------------------------5-5--5-5-5--------------------------------------| 
C#|-5-5--5-5-5--2-2--2-2--5-5--5-5--0-0--0-0--5-5--5-5-5--2-2--2-2--5-5--5-5--0-0-0-0-0-0-0-0-| 
G#|-3-3--3-3-3--2-2--2-2--5-5--5-5--0-0--0-0--3-3--3-3-3--2-2--2-2--5-5--5-5--0-0-0-0-0-0-0-0-| 
C#|-------------2-2--2-2--5-5--5-5--0-0--0-0--------------2-2--2-2--5-5--5-5--0-0-0-0-0-0-0-0-| 

Chorus 
D#|---------------------------------------------------------------------------| 
A#|---------------------------------------------------------------------------| 
F#|-5-5-5-5-5-5-5-5-----------------------------------------------------------| 
C#|-5-5-5-5-5-5-5-5--2-2-2-2-2-2-2-2--5-5-5-5-5-5-5-5--0-0-0-0-0-0-0-0--------| 
G#|-3-3-3-3-3-3-3-3--2-2-2-2-2-2-2-2--5-5-5-5-5-5-5-5--0-0-0-0-0-0-0-0--------| 
C#|------------------2-2-2-2-2-2-2-2--5-5-5-5-5-5-5-5--0-0-0-0-0-0-0-0--------| 

D#|---------------------------------------------------------------------------| 
A#|---------------------------------------------------------------------------| 
F#|-5-5-5-5-5-5-5-5-----------------------------------------------------------| 
C#|-5-5-5-5-5-5-5-5--2-2-2-2-2-2-2-2--5-5-5-5-5-5-5-5--0-0-0-0-0-0-0-0--------| 
G#|-3-3-3-3-3-3-3-3--2-2-2-2-2-2-2-2--5-5-5-5-5-5-5-5--0-0-0-0-0-0-0-0--------| 
C#|------------------2-2-2-2-2-2-2-2--5-5-5-5-5-5-5-5--0-0-0-0-0-0-0-0--------| 

D#|---------------------------------------------------------------------------| 
A#|---------------------------------------------------------------------------| 
F#|-5-5-5-5-5-5-5-5-----------------------------------------------------------| 
C#|-5-5-5-5-5-5-5-5--2-2-2-2-2-2-2-2--5-5-5-5-5-5-5-5--0-0-0-0-0-0-0-0--------| 
G#|-3-3-3-3-3-3-3-3--2-2-2-2-2-2-2-2--5-5-5-5-5-5-5-5--0-0-0-0-0-0-0-0--------| 
C#|------------------2-2-2-2-2-2-2-2--5-5-5-5-5-5-5-5--0-0-0-0-0-0-0-0--------| 

D#|---------------------------------------------------------------------------| 
A#|---------------------------------------------------------------------------| 
F#|-5-5-5-5-5-5-5-5-----------------------------------------------------------| 
C#|-5-5-5-5-5-5-5-5--2-2-2-2-2-2-2-2--5-5-5-5-5-5-5-5--0-0-0-0-0-0-0-0--------| 
G#|-3-3-3-3-3-3-3-3--2-2-2-2-2-2-2-2--5-5-5-5-5-5-5-5--0-0-0-0-0-0-0-0--------| 
C#|------------------2-2-2-2-2-2-2-2--5-5-5-5-5-5-5-5--0-0-0-0-0-0-0-0--------| 

Outro 
D#|---------------------------------------------------------------------------| 
A#|--5---5---5--3-3-3-5--5---5---5--3-3-3-5-----------------------------------| 
F#|---------------------------------------------------------------------------| 
C#|--2-0-2-0-2-----------2-0-2-0-2--------------------------------------------| 
G#|--2-0-2-0-2-----------2-0-2-0-2--------------------------------------------| 
C#|--2-0-2-0-2-----------2-0-2-0-2--------------------------------------------| 

That's it! Hope you liked it, and thanks for checking out my tab! God bless! 


************************************ 

| /   slide up 
| \   slide down 
| h   hammer-on 
| p   pull-off 
| ~   vibrato 
| +   harmonic 
| x   Mute note 
| b   Bend 
| pb  Pre-bend 
| br  Bend release 
| pbr Pre-bend release 
| brb Bend release bend 

************************************ 
  

top 5 | lacey sturm
top rock'n roll
Outras músicas do artista letras do(a) Lacey Sturm
Top cifras »Top artistas »
Petaxxon Comunicação Online
Cifras.com.br - Melhor e mais completo site de cifras e tablaturas do Brasil
Mais de 1 milhão de acordes de músicas cadastradas desde 2003
As informações contidas no nosso site são colaborações de seus usuários e podem conter erros, sendo assim, não nos responsabilizamos sobre nenhuma destas.
close
menos
mais
close
Cor dos acordes:

Cor da letra:

 

save
close
close
 
redimensionar