Cifras e Tablaturas
Ladrón

Ladrón

Tarde O Temprano

Cifras Cancelar Versão de Impressão

Ladrón - Tarde O Temprano

Tom: G

  			Armoniza en Sol mayor 

e-3-2-3-2-3---3-2-3-2-3-----3-2-----2------- 
B-----------5-----------5-5-----5-5----5-3-- 
G------------------------------------------- 
D------------------------------------------- 
A------------------------------------------- 
E------------------------------------------- 


e-3-2-3-2-3---3-2-3-2-3-----3-2----3- 
B-----------5-----------5-5-----5---- 
G------------------------------------ 
D------------------------------------ 
A------------------------------------ 
E------------------------------------
    	
fixar
fixar inscrever-se

enviado porenviado por: emergurjao
cifra enviadaCorrigida por: sem correções
logo top cifrasComente
ico música do artistaMúsicas deste artista
ico curtiuCurtiu?
ico destaqueDestaque
Petaxxon Comunicação Online

Cifras.com.br - Melhor e mais completo site de cifras e tablaturas do Brasil Mais de 1 milhão de acordes de músicas cadastradas desde 2003
As informações contidas no nosso site são colaborações de seus usuários e podem conter erros, sendo assim, não nos responsabilizamos sobre nenhuma destas.

close
menos
mais
close
Cor dos acordes:

Cor da letra:

close
Alinhar acordes a direita Alinhar acordes a esquerda Alinhar acordes em baixo Alinhar acordes no topo
close
  Mostrar todos os acordes Esconder acordes muito fáceis Esconder acordes fáceis Esconder acordes intermediários
redimensionar
glossário