Cifras e Tablaturas
Lari Basilio

Lari Basilio

Moving On

Cifras Cancelar Versão de Impressão
cifras

Lari Basilio - Moving On

fixar na tela  
Exibindo: vídeo-aula ver clipes redimensionar

Tom:

  E|------------------------------0----------------------| 
B|--------------------------0h3---3--------------------| 
G|------------0-------0h4/5----------------------------| \ 
D|----0h2h3-x---3p2p0----------------------------------|  \ 
A|-----------------------------------------------------|   \ 
E|-0---------------------------------------------------|    \ 
                                                           (4x) 
 
E|-----------------------------------------------------|    / 
B|----------------------0------------------------------|   / 
G|---0h5-x--0---------0---0-5--------------------------|  / 
D|---0h5-x--0-----0h7----------------------------------| / 
A|-----------------------------------------------------| 
E|-3----------3/5--------------------------------------| 
 
 
E|------3----------------------------------------------| 
B|---------3-------------------------------------------| 
G|-3----------3----------------------------------------| 
D|-3---------------------------------------------------| 
A|-----------------------------------------------------| 
E|-1---------------------------------------------------| 
 


Ponte: 

 
E|-----------------------------------------------------| 
B|-----------------------------------------------------| 
G|------0-------------3-----------7-----0--------------| 
D|----3----3--------3---3-------7----7-----8-----------| 
A|-----------------------------------------------------| 
E|-1----------1--5--------5--8-------------------------| 
 
 
E|-----------------------------------------------------| 
B|-----------------------------------------------------| 
G|------0-------------3------------2-------------------| 
D|----3----3--------3---3---3----5----5----------------| 
A|---------------------------------------3-------------| 
E|-1----------1--5--------5---3------------------------| 
 
 
E|-----------------------------------------------------| 
B|-----------------------------------------------------| 
G|-------0---------------5p3---------------------------| 
D|----3------3---3----3------3---3---------------------| 
A|---------x-------------------------------------------| 
E|-1-----------1---5-----------5-----------------------| 
 
 
E|-----------------------------------------------------| 
B|-----------------------------------------------------| 
G|-------7-----8p7-----------7-------------------------| 
D|----7----7-------7---8p7-----8-----------------------| 
A|-----------------------------------------------------| 
E|-8---------8-------8-----8---------------------------| 
 
 
E|-----------------------------------------------------| 
B|-----------------------------------------------------| 
G|-------0---------------5p3---------------------------| 
D|----3------3---3----3------3---3---------------------| 
A|---------x-------------------------------------------| 
E|-1-----------1---5-----------5-----------------------| 
 
 
E|-----------------------------------------------------| 
B|-----------------------------------------------------| 
G|-------7---------5---------x--5p4--------------------| 
D|----7----7----5-----5---5--x--5----------------------| 
A|-----------------------------------------------------| 
E|-8---------6----------5-------5----------------------| 
 


Solo Refrão - Parte 1 de 2: 

 
E|-----------------------------------------------------| 
B|----6p5-----6--5-----10--10------8---8---------------| 
G|----5-------5--5-----10--10-----10--10---------------| 
D|-0-------0--------0----------0-----------------------| 
A|-----------------------------------------------------| 
E|-----------------------------------------------------| 
 
 
E|-----------------------------------------------------| 
B|-----------------------------------------------------| 
G|-8/9--9----------------------------------------------| 
D|--------7--7-10-8/9--9-------------------------------| 
A|-----------------------8--8h10--7~-------------------| 
E|-----------------------------------------------------| 
 
 
E|-----------------------------------------------------| 
B|-----------------8-------------------10-12--12p10-10~| 
G|-------7h9---7h9---9---------9-10-10-----------------| 
D|-----9-----9---------9/10-10-------------------------| 
A|7h10-------------------------------------------------| 
E|-----------------------------------------------------| 
 


Solo Refrão - Parte 2 de 2: 

 
E|---------------------17----15------------------------| 
B|-17b19--b19r17p15-------15----16b20--b20r18p15-------| 
G|------------------17---------------------------17b19-| 
D|-----------------------------------------------------| 
A|-----------------------------------------------------| 
E|-----------------------------------------------------| 
 
 
E|-----------------------------------------------------| 
B|----------------10--8---8----------------------------| 
G|-10--10p9-10--x-10-10--10--10/12~--------------------| 
D|-10--10---10--x--------------------------------------| 
A|-----------------------------------------------------| 
E|-----------------------------------------------------| 
 
 
E|-----------------------------------------------------| 
B|------------------------------8----------------------| 
G|-9b----7---7----9b----7---7h9---10~------------------| 
D|---------9--------------9----------------------------| 
A|-----------------------------------------------------| 
E|-----------------------------------------------------| 
 
 
E|-------10--------10-------10--12p10------------------| 
B|-------10--------10-------10--------10h12~~----------| 
G|-12/13----13--13----12/13----------------------------| 
D|-----------------------------------------------------| 
A|-----------------------------------------------------| 
E|-----------------------------------------------------| 
  

top 5 | lari basilio
top rock'n roll
Outras músicas do artista letras do(a) Lari Basilio
Top cifras »Top artistas »
Petaxxon Comunicação Online
Cifras.com.br - Melhor e mais completo site de cifras e tablaturas do Brasil
Mais de 1 milhão de acordes de músicas cadastradas desde 2003
As informações contidas no nosso site são colaborações de seus usuários e podem conter erros, sendo assim, não nos responsabilizamos sobre nenhuma destas.
close
menos
mais
close
Cor dos acordes:

Cor da letra:

 

save
close
close
 
redimensionar